Tablatura para Guitarra de Vicente Fernandez: Mujeres Divinas
Conexión · Inscripción
Letras y Acordes
Pantalla Completa
Imprimir
Versión Texto
Añadir Favorito
Otras Versiones

Mostrar Diagramas
Desfile Automático
Manipular Acordes
Formato del Texto


Vicente Fernandez
Mujeres Divinas(TAB)
calidad:
vfer0284
AUTOR: Martín Urieta
ALBUM: El Cuatrero
Enviado por jesus
Intro :




e-4---3---1---3-3---6-6---2-2---1-1-------8-9--11----
b-6---4---2---4-4---8-8---3-3---2-2---4---9-11-13----
g-------------------------------------5--------------
d----------------------------------------------------
a----------------------------------------------------
E----------------------------------------------------

e-4---3---1---11-11---15-15---11-11---9--9----8------------
b-6---4---2---13-13---16-16---12-12---11-11---9-----2-4----
g-------------------------------------------------5-3-5----
d-------------------------------------------------6--------
a----------------------------------------------------------
E----------------------------------------------------------

e--------------------------------------------------------------------
b--4-4-4-4-4-----------------------------1---------------------------
g--5-5-5-5-5--3-0-5-3-0-5-3-0--5-5-3-1-----3-1-0---------------------
d------------------------------------------------3-2--3--5--6--------
a--------------------------------------------------------------------
E--------------------------------------------------------------------



Arreglos del Requinto a lo largo dela cancion



de mujeres y traiciones.......

Arreglos del Requinto
e----------------9-----11---9---13-------------------------
b-------------11---11-----------14-------------------------
g----------------------------------------------------------
d----------------------------------------------------------
a----------------------------------------------------------
E----------------------------------------------------------


las botellas....

Arreglos del Requinto
e-----------------------------------------------------
b---------------9----11--9---13-----------------------
g------------10---10----------------------------------
d-----------------------------------------------------
a-----------------------------------------------------
E-----------------------------------------------------


pidieron que cantara

mis canciones.......



Arreglos del Requinto
e-----11--15--11--9--8--9---11--13------
b-----13--16--13--11-9--11--13--14------
g---------------------------------------
d---------------------------------------
a---------------------------------------
E---------------------------------------


encontra de ellas.....

Arreglos del Requinto
e---------13-11-13---------------
b------------------13-11-9-------
g--------------------------------
d--------------------------------
a--------------------------------
E--------------------------------


De pronto que se acerca un caballero......


Arreglos del Requinto
e-------------------------8--9----13------------------
b-------------------------9--11---14------------------
g-----------------------------------------------------
d-----------------------------------------------------
a-----------------------------------------------------
E-----------------------------------------------------




su pelo, ya pintaba algunas canas.....

Arreglos del Requinto
e-----------------------------------------------
b-----------------------------9---11---13-------
g-----------------------------10--10---13-------
d-----------------------------------------------
a-----------------------------------------------
E-----------------------------------------------



me dijo le suplico compañero......


Arreglos del Requinto
e-----------------------------------
b---------------6-5-6-5--6/8--------
g-------------5---------------------
d-----------------------------------
a-----------------------------------
E-----------------------------------


que no hable en mi presencia de las damas.



Arreglos del Requinto
e---------13-11-13---------------
b------------------13-11-9-------
g--------------------------------
d--------------------------------
a--------------------------------
E--------------------------------




Le dije que nosotros simplemente...



Arreglos del Requinto
e----------------------------8----------8-----
b--------------------9---11--9---9--11--------
g--------------------10--10-------------------
d---------------------------------------------
a---------------------------------------------
E---------------------------------------------

hablamos de lo mal que nos pagaron.....



Arreglos del Requinto
e----------------------8------9----8----------
b----------------------9-----11----9----------
g---------------------------------------------
d---------------------------------------------
a---------------------------------------------
E---------------------------------------------




que si alguien opinaba diferente


Arreglos del Requinto
e------------------------4----------
b---------------6-5-6-5--6----------
g-------------5---------------------
d-----------------------------------
a-----------------------------------
E-----------------------------------



final

Arreglos del Requinto
e----------------------8-8--8---------------4----
b----------------------9-9--9--11--9--------6----
g----------------------------------------5--5----
d------------------------------------------------
a------------------------------------------------
E------------------------------------------------


--------------------------------------------------

Guitarra base




Hablando
de mujeres y traiciones
se fueron consumiendo
las botellas
pidieron que cantara
mis canciones
y yo cantè las dos
encontra de ellas



De pronto que se acerca un caballero
su pelo, ya pintaba algunas canas
me dijo le suplico compañero
que no hable en mi presencia de las damas.




Le dije que nosotros simplemente
hablamos de lo mal
que nos pagaron
que si alguien
opinaba diferente
serìa porque jamàs lo traicionaron
que si alguien....



INTRO






Me dijo yo soy uno de los seres
que màs a soportado los fracasos
y siempre me dejaron las mujeres
llorando y con el alma hecha pedazos
màs nunca les reprecho mis heridas
se tiene que sufrir cuando se ama
las horas màs hermosas de mi vida
las he pasado al lado de una dama.

Pudieramos morir en las cantinas
y nunca lograrìamos olvidarlas
mujeres o mujeres tan divinas
no queda otro camino que adorarlas
Mujeres....
Este fichero es trabajo propio de su transcriptor y representa su interpretación personal de la canción. El material contenido en esta página es
para exclusivo uso privado, por lo que se prohibe su reproducción o retransmisión, así como su uso para fines comerciales.

© LaCuerda.net · Aviso Legal · Privacidad