Tablatura para Guitarra de Vicente Fernandez: Me voy a quitar de enmedio
Conexión · Inscripción
Letras y Acordes
Pantalla Completa
Imprimir
Versión Texto
Añadir Favorito
Otras Versiones

Mostrar Diagramas
Desfile Automático
Manipular Acordes
Formato del Texto


Vicente Fernandez
Me voy a quitar de enmedio(TAB)
calidad:
vfer0262
AUTOR: Vicente Fernandez  corregir
ALBUM: desconocido
Enviado por Edwin
   
                    
ESTA TABLATURA SE LA DEDICO A UNA INGRATA MUJER QUE ME ¨BAILÓ SABROSO¨
CON UN INFELIZ MELENUDO . PARA TI PILAR , ESPERO QUE TE MUERAS

e-----5--4--5--4--5--4--5-------------------------
B--------------------------5-----5-----------
G-----------------------------6-------------
D------------------------------------------
A------------------------------------------
E------------------------------------------



e------6--5-----------6--5---------------------
B------------5-----5--------6-----------------
G---------------6--------------7-------------
D------------------------------------------
A------------------------------------------
E------------------------------------------


e-----11--10--------------11--10-------------------
B-------------10------10----------11-------------
G-----------------11------------------12-------
D------------------------------------------
A------------------------------------------
E------------------------------------------




e-----13-13-13-13----------13--13-13-13-13-13-13---------13--
B------------------11--12-------------------------10-10----
G------------------------------------------
D------------------------------------------
A------------------------------------------
E------------------------------------------


e---------10--9--8--7--6--5--4--5--4--5--6--5--4---
B-----10-------------------------------------
G------------------------------------------
D------------------------------------------
A------------------------------------------
E------------------------------------------


e-----5-------------
B--------6--5------
G--------------7---
D------------------
A------------------
E-----------------


INTRO: LAmm Rem - RE7m SOLm - Rem - LA#M - LA7 - Rem

LA7
Si nuestro amor se acaba Si nuestro amor termina Ya no me queda nada Para vivir la vida Si ya olvidaste todo También tus juramentos Y llenaste de lodo Mi mundo de recuerdos No más por tu soberbia No das explicaciones Encima me condenas Sin escuchar razones Si terminar conmigo Ya lo venías pensando Déjame estar contigo Aunque no esté a tu lado Si me dejas no me olvides por favor Nunca me olvides Tú sabes cuanto te quiero Que desde siempre te quise Si me dejas no me olvides por favor Nunca me olvides Me voy a quitar de en medio Qué más quieres , que más pides INTER: LAM - Rem - RE7 - SOLM - Rem - LA#M - LAM - Rem No más por tu soberbia No das explicaciones Encima me condenas Sin escuchar razones Si terminar conmigo Ya lo venías pensando Déjame estar contigo Aunque no esté a tu lado Si me dejas no me olvides por favor Nunca me olvides Tú sabes cuanto te quiero Que desde siempre te quise Si me dejas no me olvides por favor Nunca me olvides Me voy a quitar de en medio Qué más quieres , que más pides ESPERO QUE LES GUSTE , POR CIERTO SI TIENEN ALGUNA DUDA O CUALQUIER SUGERENCIA O PETICIÓN MANDENME UN MAIL , SALUDOS DESDE ECUADOR
Este fichero es trabajo propio de su transcriptor y representa su interpretación personal de la canción. El material contenido en esta página es
para exclusivo uso privado, por lo que se prohibe su reproducción o retransmisión, así como su uso para fines comerciales.

© LaCuerda.net · Aviso Legal · Privacidad