Tablatura para Guitarra de Vicente Fernandez: Hermoso cariño
Conexión · Inscripción
Letras y Acordes
Pantalla Completa
Imprimir
Versión Texto
Añadir Favorito
Otras Versiones

Mostrar Diagramas
Desfile Automático
Manipular Acordes
Formato del Texto

Vicente Fernandez
Hermoso cariño(TAB)
calidad:
vfer0184
AUTOR: Fernando Z. Maldonado
ALBUM: Vicente Fernández
Enviado por cesar
Esta cancon comienza con unas trompetas pero las pueden tocar asi:


     F
e-12----12---10---8---12-12----12--12---10---8----12-10-12-10-12-10-12--
B-13----13---12---10--13-13----13--13---12---10---13-12-13-12-13-12-13--
G------------------------------------------------------------
d------------------------------------------------------------

e-10--10--10----8---7--8--8-----8--8--7--5--8--8----10----12---10----8---7-
B-12--12--12---10--8---10-10---10-10--8--7-10-10---12--13---12---10---8-
G------------------------------------------------------------
D------------------------------------------------------------

  C
Hermoso cariño
Hermoso cariño
que Dios me ha mandado
a ser destinado
    Cdim    G7
nomas  para MI
 G7
 Precioso regalo
 Precioso regalo
Del cielo ha llegado
Y que me ha colmado de dicha
 G7   C-Edim   Dm-G7
y amor


             C  Dm   Em
Hermoso cariño
             C  Dm   Em
hermoso cariño
   Dm             C               C7
ya estoy como un niño Con nuevo juguete
              F
 Contento y feliz.
                            C
No puedo evitarlo ni quiero gritarlo
           G7
Hermoso cariño que Dios ha mandado
            C
Nomas para mi
     F
e-12----12---10---8---12-12----12--12---10---8----12-10-12-10-12-10-12--
B-13----13---12---10--13-13----13--13---12---10---13-12-13-12-13-12-13--
G---------------------------------------------------------------
d----------------------------------------------------------

e-10---10--10----8---7--8--8-----8--8--7--5--8--8----10---12---10----8---7-
B-12---12--12---10--8---10-10---10-10--8--7-10-10---12--13---12---10---8-
G------------------------------------------------------------
D-----------------------------------------------------------

             C  Dm   Em
Hermoso cariño
             C  Dm   Em
hermoso cariño
       Dm          C
 ya estoy como un niño
           C7
Con nuevo juguete
              F
 Contento y feliz.
                              C
No puedo evitarlo ni quiero gritarlo
          G7
Hermoso cariño que Dios ha mandado
        C    G7-C
Nomas para mi.
Envía el tono de "Hermoso cariño" a tu celular/móvil
Este fichero es trabajo propio de su transcriptor y representa su interpretación personal de la canción. El material contenido en esta página es
para exclusivo uso privado, por lo que se prohibe su reproducción o retransmisión, así como su uso para fines comerciales.
© LaCuerda.net · Aviso Legal · Privacidad