Tablatura para Guitarra de La Vela Puerca: Zafar
Conexión · Inscripción
Letras y Acordes
Pantalla Completa
Imprimir
Versión Texto
Añadir Favorito
Otras Versiones

Mostrar Diagramas
Desfile Automático
Manipular Acordes
Formato del Texto

La Vela Puerca
Zafar(TAB)
calidad:
vpue0373
AUTOR: Sebastián teysera
ALBUM: A contraluz (version del cd) (2004)
Enviado por gerardo
La otra transcripcion no tenia bien los punteos asi que aca
los puse.La cancion esta perfecta. Si ven que esta algo mal
envienme un mail para que la corrija.

INTRO    Am
1º----0-----0-----------|
2º----1-----1-----------|
3º----------------------|
4º-------2--------------|
5º-0--------------------|
6º----------------------|
1) Tocar 6 veces
     Dm        G
----1-----1-----3-----3-------------|
----3-----3-----3-----3-------------|
------------------------------------|
-0-----0----------------------------|
-------------------2----------------|
-------------3----------------------|
2)1 vez
       Am          Am            Dm          G
----0-----0------0-----0------1-----1-----3-----3--
----1-----1------1-----1------3-----3-----3-----3--
---------------------------------------------------
-------2------------2------0-----0-----------------
-0------------0------------------------------2-----
---------------------------------------3-----------
3) Tocar 2 veces en intro, en la cancion una sola ves por verso


Luego tocar 1) dos veces y Dm,G

EN TODA LA CANCION SE TOCA 3)
Soy de la ciudad con todo lo que ves:
Con su ruido, con su gente, consume vejez;
y no puedo evitar el humo que entra hoy,
pero igual sigo creciendo, soy otro carbón.
No voy a imaginar la pena en los demás;
compro aire y, si es puro, pago mucho más;
no voy a tolerar que ya no tengan fe,
que se bajen los brazos, que no haya lucidez.

Me voy, volando por ahí,
y estoy convencido de ir;
Me voy, silbando y sin rencor,
  1)       Dm        G
y estoy zafando del olor.

Me encontré con la gente que sabe valorar,
que, de turista en la Capital ha sabido vagar,
y no ha encarado al fin, la cruda realidad
de respirar hollín, de llorar alquitrán.
Y empiezo a envejecer, sudando mi verdad,
criado pa toser, con mucha variedad;
y adónde ir a parar, cargando con mi olor;
deberíamos andar desnudos pa sentirnos mejor.

SEGUNDA GUITARRA PUNTE0 5)
Me voy , volando por ahí,
y estoy convencido de ir;
Me voy, silbando y sin rencor,
  1)     Dm          G
y estoy zafando del olor.

Solo
    Am               Dm          G
Soy de la ciudad con todo lo que ves:
    Am               Dm          G
Con su ruido, con su gente, consume vejez;
    Am               Dm          G
y no puedo evitar el humo que entra hoy,
    Am
pero igual sigo creciendo, soy otro carbón.

SIGUE CON 3) Segunda guitarra punteo 4)
No voy a imaginar la pena en los demás;
compro aire y, si es puro, pago mucho más;
no voy a tolerar que ya no tengan fe,
que se bajen los brazos, que no haya lucidez.



SEGUNDA GUITARRA PUNTEO 5)
Me voy, volando por ahí,
y estoy convencido de ir;
Me voy, silbando y sin rencor,
  1)       Dm        G
y estoy zafando del olor.

SEGUNDA GUITARRA 6)
Me voy, volando por ahí,
y estoy convencido de ir;
Me voy, silbando y sin rencor,
  1)       Dm        G
y estoy zafando del olor.

Punteo 4)
----------------------------8--------------
8h10------8h10--8-----8h10----10---10h12h10
-------------------------------------------
-------------------------------------------
-------------------------------------------
-------------------------------------------

---------------------------8---10--------------
8h10-----8h10--8------8h10--------10---10h12h10
-----------------------------------------------
-----------------------------------------------
-----------------------------------------------
-----------------------------------------------

Punteo 5)
-----8--12--8---------------------8--12--8---10--------------
8h10----------10---8h10--8---8h10----------10---10--10h12--10
-------------------------------------------------------------
-------------------------------------------------------------
-------------------------------------------------------------
-------------------------------------------------------------

Punteo 6)
----------8----------8-------------------8--12--8---10---------
8h10h8h10---8h10h810---8---8h10--8--8h10----------10---10h12-10
---------------------------------------------------------------
---------------------------------------------------------------
---------------------------------------------------------------
---------------------------------------------------------------
Envía el tono de "Zafar" a tu celular/móvil
Este fichero es trabajo propio de su transcriptor y representa su interpretación personal de la canción. El material contenido en esta página es
para exclusivo uso privado, por lo que se prohibe su reproducción o retransmisión, así como su uso para fines comerciales.
© LaCuerda.net · Aviso Legal · Privacidad