Tablatura para Guitarra de V8: Destrucción
Conexión · Inscripción
Letras y Acordes
Pantalla Completa
Imprimir
Versión Texto
Añadir Favorito
Otras Versiones

Mostrar Diagramas
Desfile Automático
Manipular Acordes
Formato del Texto

V8
Destrucción(TAB)
calidad:
v80021
AUTOR: V8
ALBUM: Luchando por el Metal (1983)
Enviado por Alexis
En el LA del riff (que lo hace en las cuerdas 6 y 5), 
suele levantar un poco el dedo índice para que suene el armónico de LA, 
lo que hace sonar mas crudo al acorde.

Riff Principal 
E|----------------------------------|
B|----------------------------------|
G|----------------------------------|
D|----------------------------------|
A|--7---7-7--7-7--7-7---7--7/10-10--|
E|--5---5-5--5-5--5-5---5--5/8--8---|
 
A                    A 
Ya no creo en nadie, ya no creo en ti

G             D           A     
Ya no creo en nada porque nadie cree en mi

   D          C        Riff Principal
Sé que la decisión del juicio final

   D          C        Riff Principal
Será la solución, destrucción

Solo:
      La base es el riff en LA x4, luego en SI x4, luego en LA x4 y finalmente en SI x4.

E|------------------------------------------------20-------20--------|
B|-------------------------20(22)-20(22)-20(22)------20(22)--20(22)--|
G|----------------------17-------------------------------------------|
D|--/14-/15-/17---17h19----------------------------------------------|
A|-------------------------------------------------------------------|
E|-------------------------------------------------------------------|

E|------------------------------------------------|---------7------------------------|
B|--------------------20--------------------------|-----------10-7-------7-----------|
G|-19p17-------19(21)----19(21)---19p17h19p17-----|---9(11)--------9-7-9---9-7-9-7---|
D|-------19p17--------------------------------19--|--------------------------------9-|
A|------------------------------------------------|----------------------------------|
E|------------------------------------------------|----------------------------------|
                                                     Yeite blusero en B (x2)

E|---------------------10(12)p10---12-15(17)-|-----12--15p12-14p12--|-----------------------
B|-----------10(12)p10-----------------------|--14------------------|-15(17)-15-12----12----
G|---9(11)p9---------------------------------|----------------------|--------------14----14(16)-|
D|-9-----------------------------------------|----------------------|-----------------------
A|-------------------------------------------|----------------------|-----------------------
E|-------------------------------------------|----------------------|-----------------------
  Estira estas notas para enganchar con este  yeite rapido en B [x10] y terminar asi

E|-------------------------------------|----------------------------|---------17-17(19)~~-
B|--------7h9-7h9p7---7----------------|------------------7---------|--17(19)-------------
G|--9(11)-----------9---9(11)p9-7h9p7--|--------------7-9---9(11)---|---------------------
D|-------------------------------------|----------7-9---------------|---------------------
A|-------------------------------------|----5-7-9-------------------|---------------------
E|-------------------------------------|--7-------------------------|---------------------
   Yeite blusero 2 [x2]                  Subida en B                   Final
Envía el tono de "Destrucción" a tu celular/móvil
Este fichero es trabajo propio de su transcriptor y representa su interpretación personal de la canción. El material contenido en esta página es
para exclusivo uso privado, por lo que se prohibe su reproducción o retransmisión, así como su uso para fines comerciales.
© LaCuerda.net · Aviso Legal · Privacidad