Tablatura para Guitarra de Transmetal: El Infierno de Dante
Conexión · Inscripción
Letras y Acordes
Pantalla Completa
Imprimir
Versión Texto
Añadir Favorito
Otras Versiones

Mostrar Diagramas
Desfile Automático
Manipular Acordes
Formato del Texto

Transmetal
El Infierno de Dante(TAB)
calidad:
trmt0031
AUTOR: Lorenzo Partida
ALBUM: El Infierno de Dante (1993)
Enviado por Fernando
UNA MUESTRA DEL METAL MEXICANO

INTRO

     X2
e -----------------------------|
B -----------------------------|
G -----------------------------|
D -----------------------------|
A -----------------------------|
E -1-1-1-1-1-1--4-4-4--0-0-0---|

MAIN RIFF 

e ------------------------------------------|
B ------------------------------------------|
G ------------------------------------------|
D -3-3-3-3-3-3----6-6-6/5-5-5/3-3-3/2-2-----|
A -3-3-3-1-1-1----6-6-6/5-5-5/3-3-3/2-2-----|
E -1-1-1-1-1-1----4-4-4/3-3-3/1-1-1/0-0-----|

CORO

e ------------------------|
B ------------------------|
G -------------------5-4--|
D -3-4-3-XXXX-3-4-3-------|
A -3-4-3-XXXX-3-4-3-------|
E -1-2-1-XXXX-1-2-1-------|

BRIDGE

e ------------------------------------------|
B ------------------------------------------|
G ------------------------------------------|
D -4/3-XXXXXX-4/3-XXXXXX-4/3-X-4/3-X-3-X-8--|
A -4/3-XXXXXX-4/3-XXXXXX-4/3-X-4/3-X-3-X-8--|
E -2/1-XXXXXX-2/1-XXXXXX-2/1-X-2/1-X-1-X-6--|


Y HACI SE REPITE TODA LA ROLA, EL SOLO YO LO IMPROVISO
ENTONCES NO LO PUEDO PONER


RECUERDA METAL UP YPOR ASS!!

SUGERENCIAS, COMENTARIOS:
alexeldermx@hotmail.com
o al ICQ #35637307
Envía el tono de "El Infierno de Dante" a tu celular/móvil
Este fichero es trabajo propio de su transcriptor y representa su interpretación personal de la canción. El material contenido en esta página es
para exclusivo uso privado, por lo que se prohibe su reproducción o retransmisión, así como su uso para fines comerciales.
© LaCuerda.net · Aviso Legal · Privacidad