Tablatura para Guitarra de Tigrillos: Mira Oye
Conexión · Inscripción
Letras y Acordes
Pantalla Completa
Imprimir
Versión Texto
Añadir Favorito
Otras Versiones

Mostrar Diagramas
Desfile Automático
Manipular Acordes
Formato del Texto


Tigrillos
Mira Oye(TAB)
calidad:
tigr0014
AUTOR: Tigrillos  corregir
ALBUM: desconocido
Enviado por NaKo_AgUiLa
hehepa!!!

Intro:
e|--------------------------------------------------------
B|--------------------------------------------------------
G|--------------------------------------------------------
D|--------------------------------------------------------
A|-5---3--------3-5-3---1-------5---3--------3-5-3---1----
E|-------5----5-----------3-----------5----5-----------3--

(rapido)
e|--------------------------------------------------------------------------------------------------
B|--------------------------------------------------------------------------------------------------
G|--------------------------------------------------------------------------------------------------
D|--------------------------------------------------------------------------------------------------
A|-5--3---3-5----3---5-3----1---1-3----1---3-5-3---3-5----3---5-3----1---1-3-----1---3--5-5---5-5-5-
E|------5----------5----------3----------3-------5----------5----------3-----------3----------------


ACORDEÓN.
e|-----------------------------------------------------------------------------------------
B|-----------------------------------------------------------------------------------------
G|-----------------------------------------------------------------------------------------
D|-----------3--------------3--------------2--------------2--------------3--------------3--
A|-5-5-5-5-5------5-5-5-5-5------3-3-3-3-3------3-3-3-3-3------5-5-5-5-5------5-5-5-5-5----
E|-----------------------------------------------------------------------------------------

e|-----------------------------------------------------------------------------------------
B|-----------------------------------------------------------------------------------------
G|-----------------------------------------------------------------------------------------
D|------------2--------------2-3----2------------------------------------------------------
A|--3-3-3-3-3------3-3-3-3-3----------5----3-5-3-5-3-5-5-5---------------------------------
E|-----------------------------------------------------------------------------------------



Mira, esta cumbia si la gozo
Oye, este ritmo cadencioso

Mira, este baile es contagioso
Oye, de gozarla soy dichoso

Tienes que bailar, tienes que bailar
Mi pareja serás tu.

Déjate llevar , déjate llevar
Suelta el cuerpo como yo.

Pronto aprenderás, pronto aprenderás
Si tu sientes el sabor.
Tu vas a vivir, tu vas vivir
Toda toda de emoción.

Mueve tu cintura, mueve tu cintura
Mueve tu cadera, mueve tu cadera.


Mueve tu cintura, tu cadera, tu cintura
Muévete y remueve sentirás la sabrosura.

Mueve tu cintura, mueve tu cintura
Mueve tu cadera, mueve tu cadera.

Mueve tu cintura, tu cadera, tu cintura
Gira gira gira gira gira de locura, ohohohoh.

e|--------------------------------
B|--------------------------------
G|--------------------------------
D|-2-3----2-----------------------
A|----------5----3-5-3-5-3-5-5-5--
E|--------------------------------

Intro:
e|--------------------------------------------------------
B|--------------------------------------------------------
G|--------------------------------------------------------
D|--------------------------------------------------------
A|-5---3--------3-5-3---1-------5---3--------3-5-3---1----
E|-------5----5-----------3-----------5----5-----------3--

(rapido)
e|-----------------------------------------------------------------------------------------
B|-----------------------------------------------------------------------------------------
G|-----------------------------------------------------------------------------------------
D|-----------------------------------------------------------------------------------------
A|-5--3---3-5----3---5-3----1---1-3----1---3-5-3---3-5----3---5-3----1---1-3-----1---3-----
E|------5----------5----------3----------3-------5----------5----------3-----------3-------


ACORDEÓN.
e|-----------------------------------------------------------------------------------------
B|-----------------------------------------------------------------------------------------
G|-----------------------------------------------------------------------------------------
D|-----------3--------------3--------------2--------------2--------------3--------------3--
A|-5-5-5-5-5------5-5-5-5-5------3-3-3-3-3------3-3-3-3-3------5-5-5-5-5------5-5-5-5-5----
E|-----------------------------------------------------------------------------------------

e|-----------------------------------------------------------------------------------------
B|-----------------------------------------------------------------------------------------
G|-----------------------------------------------------------------------------------------
D|------------2--------------2-3----2------------------------------------------------------
A|--3-3-3-3-3------3-3-3-3-3----------5----3-5-3-5-3-5-5-5---------------------------------
E|-----------------------------------------------------------------------------------------


Mira, esta cumbia si la gozo
Oye, este ritmo cadencioso

Mira, este baile es contagioso
Oye, de gozarla soy dichoso

Tienes que bailar, tienes que bailar
Mi pareja serás tu.

Déjate llevar , déjate llevar
Suelta el cuerpo como yo.

Pronto aprenderás, pronto aprenderás
Si tu sientes el sabor.
Tu vas a vivir, tu vas vivir
Toda toda de emoción.

Mueve tu cintura, mueve tu cintura
Mueve tu cadera, mueve tu cadera.


Mueve tu cintura, tu cadera, tu cintura
Muévete y remueve sentirás la sabrosura.

Mueve tu cintura, mueve tu cintura
Mueve tu cadera, mueve tu cadera.

Mueve tu cintura, tu cadera, tu cintura
Gira gira gira gira gira de locura, ohohohoh.

e|--------------------------------
B|--------------------------------
G|--------------------------------
D|-2-3----2-----------------------
A|----------5----3-5-3-5-3-5-5-5--
E|--------------------------------
Este fichero es trabajo propio de su transcriptor y representa su interpretación personal de la canción. El material contenido en esta página es
para exclusivo uso privado, por lo que se prohibe su reproducción o retransmisión, así como su uso para fines comerciales.

© LaCuerda.net · Aviso Legal · Privacidad