Tablatura para Guitarra de Tex Tex: Ahora que no vives conmigo
Conexión · Inscripción
Letras y Acordes
Pantalla Completa
Imprimir
Versión Texto
Añadir Favorito
Otras Versiones

Mostrar Diagramas
Desfile Automático
Manipular Acordes
Formato del Texto

Tex Tex
Ahora que no vives conmigo(TAB)
calidad:
ttex0022
AUTOR: Los mujica Bros.
ALBUM: Subete al tren
Enviado por rafael
RAFAEL AREVALO GIL

dudas : are_rafa@hotmail.com


    D# D# D# D# D#  C# C# C# C# C#
e|--------------------------------------
B|--------------------------------------
G|--8--8--8--8--8----6--6--6--6--6------    X2(REPITE)
D|--8--8--8--8--8----6--6--6--6--6------
A|--6--6--6--6--6----4--4--4--4--4------
E|--------------------------------------


e|-------------------------------------------------
B|---4---4-4-4-4-4-4-4---8--8-8--6-6-6--4-4-4--2---
G|---5---5-5-5-5-5-5-5---8--8-8--6-6-6--5-5-5--3---
D|---6---6-6-6-6-6-6-6-----------------------------
A|-------------------------------------------------
E|-------------------------------------------------


e|---------------------------------------------------
B|---------------------------------------------------
G|------1-1-1---1---1--3s5--5-5-3-1----1--3s5--5-3-1-
D|-1--3-------3---3------------------3---------------
A|---------------------------------------------------
E|---------------------------------------------------


e|--------------------------------------
B|--6s8--6--4---------------------------
G|--6s8--6--5--5------------------------
D|-------------6------------------------
A|--------------------------------------
E|--------------------------------------




G#
Ahora que no vives conmigo
                     D#
estoy sintiendo el castigo

de mi terquedad

A#m
Tuve que caer en la cuenta
              C#
que perdi la cabeza

que perdi la verguenza
    D#
al gritarte una vez mas

G#
muchas veces me reclamaste
               D#
que yo no te escuchaba

en tu soledad

A#m
yo estaba sordo y ciego
                 C#
persiguiendo el dinero

persiguiendo placeres
       D#
en la sociedad

C#
ahora que no vives conmigo
                G#
ya no quiero mi libertad
Fm
quiero platicar contigo
      A#
ver si hay forma de regresar
        D#
una vez mas

    C# C# C# C# C#   D# D# D# D# D#
e|-------------------------------------
B|-------------------------------------
G|--6--6--6--6--6----8--8--8--8--8-----
D|--6--6--6--6--6----8--8--8--8--8-----
A|--4--4--4--4--4----6--6--6--6--6-----
E|-------------------------------------

    C# C# C# C# C#
e|-------------------
B|-------------------
G|--6--6--6--6--6----
D|--6--6--6--6--6----
A|--4--4--4--4--4----
E|-------------------



G#
Me recuerdo aquella tarde
             D#
cuando yo regresaba de trabajar
 A#m
el cuarto estaba todo vacio
                C#
no habia nada de muebles

ya no estaba el estereo
         D#
que  acababa de pagar


 C#
ahora que no vives conmigo
                G#
ya no quiero mi libertad
D#
quiero platicar contigo
G#
dame otra oportunidad

C#
te llevaste todos los muebles
          G#
hasta los focos de la instalacion
      Fm
me dejaste todo a oscuras
       A#
sin la tele, sin el estereo
        D#
y sin tu amor


solo:

A#, D# , A# , D#

Puente:
C# x 4  B x4  A x4


e|-------------------------------------------------
B|---4---4-4-4-4-4-4-4---8--8-8--6-6-6--4-4-4--2---
G|---5---5-5-5-5-5-5-5---8--8-8--6-6-6--5-5-5--3---
D|---6---6-6-6-6-6-6-6-----------------------------
A|-------------------------------------------------
E|-------------------------------------------------


e|---------------------------------------------------
B|---------------------------------------------------
G|------1-1-1---1---1--3s5--5-5-3-1----1--3s5--5-3-1-
D|-1--3-------3---3------------------3---------------
A|---------------------------------------------------
E|---------------------------------------------------


e|--------------------------------------
B|--6s8--6--4---------------------------
G|--6s8--6--5--5------------------------
D|-------------6------------------------
A|--------------------------------------
E|--------------------------------------



C#
ahora que no vives conmigo
                G#
ya no quiero mi libertad
D#
Dejame hablar contigo
G#
Dame otra oportunidad

C#                D#
ahora que no vives conmigo
 Fm                 C#
ya no quiero mi libertad
A#m
lo que quiero es que regreses
          D#
con los muebles otra vez

G#
Papara,Papara
A#m
Papara,Papara
G#
Papara


                  G#
e|-----------------4--------
B|-----------------4--------
G|-----------------5--------
D|--2-2--3-4-5-6---6--------
A|--2-2--3-4-5-6---6--------
E|--0-0--1-2-3-4---4--------

Fin.
Envía el tono de "Ahora que no vives conmigo" a tu celular/móvil
Este fichero es trabajo propio de su transcriptor y representa su interpretación personal de la canción. El material contenido en esta página es
para exclusivo uso privado, por lo que se prohibe su reproducción o retransmisión, así como su uso para fines comerciales.
© LaCuerda.net · Aviso Legal · Privacidad