Tablatura para Guitarra de Sur 16: Junto a mí
Conexión · Inscripción
Letras y Acordes
Pantalla Completa
Imprimir
Versión Texto
Añadir Favorito
Otras Versiones

Mostrar Diagramas
Desfile Automático
Manipular Acordes
Formato del Texto


Sur 16
Junto a mí(TAB)
calidad:
s160722
AUTOR: Javier Rangel
ALBUM: Acustico (2008)
Enviado por ivan
esta rola la saque como viene en el acustico, la neta se oye
muy bien y como las otras trate de sacarla lo mas correcta
posible, espero y les agrade




Intro
e--------------------------------------------------|
B-------------0---------------------0--------------|
G----------0---------------------0-----------------|
D-------5-----------5---------7-----------7--------|     x2
A----3-----------3-----3-3S5-----------5------5----|
E--------------------------------------------------|
        Quiero morir en tus brazos
e--------------------------------------------------|
B-------------0---------------------0--------------|
G----------0---------------------0-----------------|
D-------5-----------5---------7-----------7--------|
A----3-----------3-----3-3S5-----------5------5----|
E--------------------------------------------------|
        Y regalarte mi corazón
e--------------------------------------------------|
B-------------0---------------------0--------------|
G----------0---------------------0-----------------|
D-------5-----------5---------7-----------7--------|
A----3-----------3-----3-3S5-----------5------5----|
E--------------------------------------------------|
        Quiero robarte en mis sueños
e--------------------------------------------------|
B-------------0---------------------0--------------|
G----------0---------------------0-----------------|
D-------5-----------5---------7-----------7--------|
A----3-----------3-----3-3S5-----------5------5----|
E--------------------------------------------------|
        Y desbordar toda esta pasión
e--------------------------------------------------|
B-------------0---------------------0--------------|
G----------0---------------------0-----------------|
D-------5-----------5---------7-----------7--------|
A----3-----------3-----3-3S5-----------5------5----|
E--------------------------------------------------|

Em Por que tú…
C G D Tu eres mi gloria eres mi infierno tú
Em Por que yo
C Me vuelvo loco
G D Si no estas aquí no, no
Em C Junto a mí, junto a mí,
G D Em C G D (pausa) Junto a mí e-2s3-2---------------------------------------------------| B-3---3--------------0---------------------0--------------| G-----------------0---------------------0-----------------| D--------------5-----------5---------7-----------7--------| A-------0-0-3-----------3-----3-3S5-----------5------5----| E---------------------------------------------------------| e--------------------------------------------------| B-------------0---------------------0--------------| G----------0---------------------0-----------------| D-------5-----------5---------7-----------7--------| A----3-----------3-----3-3S5-----------5------5----| E--------------------------------------------------| Quiero besarte sin miedos e--------------------------------------------------| B-------------0---------------------0--------------| G----------0---------------------0-----------------| D-------5-----------5---------7-----------7--------| A----3-----------3-----3-3S5-----------5------5----| E--------------------------------------------------| Gritarle al mundo que soy feliz e--------------------------------------------------| B-------------0---------------------0--------------| G----------0---------------------0-----------------| D-------5-----------5---------7-----------7--------| A----3-----------3-----3-3S5-----------5------5----| E--------------------------------------------------| Quiero tenerte por siempre e--------------------------------------------------| B-------------0---------------------0--------------| G----------0---------------------0-----------------| D-------5-----------5---------7-----------7--------| A----3-----------3-----3-3S5-----------5------5----| E--------------------------------------------------| Por que no puedo vivir sin ti e--------------------------------------------------| B-------------0---------------------0--------------| G----------0---------------------0-----------------| D-------5-----------5---------7-----------7--------| A----3-----------3-----3-3S5-----------5------5----| E--------------------------------------------------|
Em Por que tú…
C G D Tú eres el agua eres el fuego tu
Em Por que yo
C G D Me vuelvo loco si no estas aquí no no
Em C Junto a mí junto a mí
G D Em C G D Junto a mí junto a mí
Em C Por que tú eres
G D Mi gloria eres mi infierno tu
Em Por que yo
C Me vuelvo loco
G D Si no estas aquí no, no
Em C Junto a mí, junto a mí,
G D Junto a mí [pausa] e--------------------------------------------------| B-------------0---------------------0--------------| G----------0---------------------0-----------------| D-------5-----------5---------7-----------7--------| A----3-----------3-----3-3S5-----------5------5----| E--------------------------------------------------| e-------------------------------------------------12A-| B-------------0---------------------0-------------12A-| G----------0---------------------0--------------------| D-------5-----------5---------7-----------------------| A----3-----------3-----3-3S5-----------5-5S6-6S7------| E-----------------------------------------------------| cualquier correccion me lo hacen saber por favor
Este fichero es trabajo propio de su transcriptor y representa su interpretación personal de la canción. El material contenido en esta página es
para exclusivo uso privado, por lo que se prohibe su reproducción o retransmisión, así como su uso para fines comerciales.
© LaCuerda.net · Aviso Legal · Privacidad