Tablatura para Guitarra de Sui Generis: Tema de natalio
Conexión · Inscripción
Letras y Acordes
Pantalla Completa
Imprimir
Versión Texto
Añadir Favorito
Otras Versiones

Mostrar Diagramas
Desfile Automático
Manipular Acordes
Formato del Texto

Sui Generis
Tema de natalio(TAB)
calidad:
sgen0641
AUTOR: Charly García
ALBUM: Pequeñas Anecdotas Sobre Instituciones
Enviado por Luis
0:00
e|------------------------<12>-----|------------------------|
B|-------------------<12>----------|-------<7>--------------|
G|--------------<12>---------------|-<12>--<7>--<7>----<12>-|
D|---------<12>--------------------|-------------------<12>-|
A|-----<12>------------------------|------------------------|
E|-<12>----------------------------|------------------------|


0:06
Juego de armónicos natirales en trastes 5, 7 y 12 por 38 seg.


0:44
e|--------------------------|--------------------------|
B|--------------------------|--------------------------|
G|--------------------------|--------------------------|
D|-------------9-9----10-10-|-------------9-9----10-10-|
A|-7--7-7-7--7-7-7--7-8--8--|-7--7-7-7--7-7-7--7-8--8--|
E|-0--0-0-0--0------0-0--0--|-0--0-0-0--0------0-0--0--|


0:49
Synt. arr. para Guitarra
e|---------------------------|---------------------------|
B|*--------------------------|--------------------------*|
G|--/9^^^^^^^^^^-------------|---------------------------|
D|-----------------------9p7-|-9^^^^^^-------------------|
A|*--------------------------|--------------------------*|
E|---------------------------|---------------------------|
 |
e|---------------------------|---------------------------|
B|*--------------------------|--------------------------*|
G|---------------------------|---------------------------|
D|--------------9-9----10-10-|-------------9-9----10-10--|
A|*-7--7-7-7--7-7-7--7-8--8--|-7--7-7-7--7-7-7--7-8--8--*|
E|--0--0-0-0--0------0-0--0--|-0--0-0-0--0------0-0--0---|


e|--------------------------|--------------------------|
B|--------------------------|--------------------------|
G|-/9^^^^^^^^---------------|-12^^^^-------------14/12-|
D|---------------------9/12-|--------------------------|
A|--------------------------|--------------------------|
E|--------------------------|--------------------------|
 |
e|--------------------------|--------------------------|
B|--------------------------|--------------------------|
G|--------------------------|--------------------------|
D|-------------9-9----10-10-|-------------9-9----10-10-|
A|-7--7-7-7--7-7-7--7-8--8--|-7--7-7-7--7-7-7--7-8--8--|
E|-0--0-0-0--0------0-0--0--|-0--0-0-0--0------0-0--0--|


e|--------------------------|--------------------------|
B|--------------------------|--------------------------|
G|--------------------------|--------------------------|
D|-14^^^^-------------16/14-|-14^^^^-------------------|
A|--------------------------|---------------------12/7-|
E|--------------------------|--------------------------|
 |
e|--------------------------|--------------------------|
B|--------------------------|--------------------------|
G|--------------------------|--------------------------|
D|-------------9-9----10-10-|-------------9-9----10-10-|
A|-7--7-7-7--7-7-7--7-8--8--|-7--7-7-7--7-7-7--7-8--8--|
E|-0--0-0-0--0------0-0--0--|-0--0-0-0--0------0-0--0--|


e|--------------------------|--------------------------|
B|--------------------------|--------------------------|
G|--------------------------|--------------------------|
D|--------------------------|--------------------------|
A|-7^^^^^^-------------12/7-|-7^^^^---------------12/7-|
E|--------------------------|--------------------------|
 |
e|--------------------------|--------------------------|
B|--------------------------|--------------------------|
G|--------------------------|--------------------------|
D|-------------9-9----10-10-|-------------9-9----10-10-|
A|-7--7-7-7--7-7-7--7-8--8--|-7--7-7-7--7-7-7--7-8--8--|
E|-0--0-0-0--0------0-0--0--|-0--0-0-0--0------0-0--0--|
                                   Aca entra la batería

1:13
e|--------------------------|--------------------------|
B|--------------------------|--------------------------|
G|--------------------------|--------------------------|
D|---------------------7--5-|---------------------9--7-|
A|-7--7p5--7--5--7--7-------|-7--7p5--7--5--7--7-------|
E|--------------------------|--------------------------|
 |
e|--------------------------|--------------------------|
B|--------------------------|--------------------------|
G|--------------------------|--------------------------|
D|--------------------------|--------------------------|
A|-7^^^^^^------------------|--------------------------|
E|--------------------------|--------------------------|
 |
e|--------------------------|--------------------------|
B|--------------------------|--------------------------|
G|--------------------------|--------------------------|
D|-------------9-9----10-10-|-------------9-9----10-10-|
A|-7--7-7-7--7-7-7--7-8--8--|-7--7-7-7--7-7-7--7-8--8--|
E|-0--0-0-0--0------0-0--0--|-0--0-0-0--0------0-0--0--|


e|--------------------------|--------------------------|
B|--------------------------|--------------------------|
G|--------------------------|--------------------------|
D|---------------------7--5-|-9-7/5-7-5----------------|
A|-7--7p5--7--5--7--7-------|--------------------------|
E|--------------------------|--------------------------|
 |
e|--------------------------|--------------------------|
B|--------------------------|--------------------------|
G|--------------------------|--------------------------|
D|-------------9-9----10-10-|-------------9-9----10-10-|
A|-7--7-7-7--7-7-7--7-8--8--|-7--7-7-7--7-7-7--7-8--8--|
E|-0--0-0-0--0------0-0--0--|-0--0-0-0--0------0-0--0--|


e|--------------------------|--------------------------|
B|--------------------------|--------------------------|
G|--------------------------|--------------------------|
D|--------------------------|--------------------------|
A|-7^^^^^^--------------7/5-|-7^^^^^^------------------|
E|--------------------------|--------------------------|
 |
e|--------------------------|--------------------------|
B|--------------------------|--------------------------|
G|--------------------------|--------------------------|
D|-------------9-9----10-10-|-------------9-9----10-10-|
A|-7--7-7-7--7-7-7--7-8--8--|-7--7-7-7--7-7-7--7-8--8--|
E|-0--0-0-0--0------0-0--0--|-0--0-0-0--0------0-0--0--|


e|--------------------------|--------------------------|
B|--------------------10--8-|--------------------12-10-|
G|-9--9p7--9--7--9--9-------|-9--9p7--9--7--9--9-------|
D|--------------------------|--------------------------|
A|--------------------------|--------------------------|
E|--------------------------|--------------------------|
 |
e|--------------------------|--------------------------|
B|--------------------------|--------------------------|
G|--------------------------|--------------------------|
D|-------------9-9----10-10-|-------------9-9----10-10-|
A|-7--7-7-7--7-7-7--7-8--8--|-7--7-7-7--7-7-7--7-8--8--|
E|-0--0-0-0--0------0-0--0--|-0--0-0-0--0------0-0--0--|


e|--------------------------|--------------------------|
B|--------------------10--8-|--------------------------|
G|-9--9p7--9--7--9--9-------|--------------------------|
D|--------------------------|--------------------------|
A|--------------------------|--------------------------|
E|--------------------------|--------------------------|
 |
e|--------------------------|--------------------------|
B|--------------------------|--------------------------|
G|--------------------------|--------------------------|
D|-------------9-9----10-10-|-------------9-9----10-10-|
A|-7--7-7-7--7-7-7--7-8--8--|-7--7-7-7--7-7-7--7-8--8--|
E|-0--0-0-0--0------0-0--0--|-0--0-0-0--0------0-0--0--|


e|--------------------------|--------------------------|
B|--------------------------|--------------------------|
G|-9^^^^^^--------------9/7-|-9^^^^^^^^------------9/7-|
D|--------------------------|--------------------------|
A|--------------------------|--------------------------|
E|--------------------------|--------------------------|
 |
e|--------------------------|--------------------------|
B|--------------------------|--------------------------|
G|--------------------------|--------------------------|
D|-------------9-9----10-10-|-------------9-9----10-10-|
A|-7--7-7-7--7-7-7--7-8--8--|-7--7-7-7--7-7-7--7-8--8--|
E|-0--0-0-0--0------0-0--0--|-0--0-0-0--0------0-0--0--|


e|--------------------------|
B|--------------------------|
G|-9^^^^^^------------------|
D|--------------------------|
A|--------------------------|
E|--------------------------|


1:46:
e|-------------------------7^^--|--------------7-8-10------|
B|-------------------7-8-x------|-8p7---7-8-10-------------|
G|---------------7-9------------|-----9--------------------|
D|--------7-9-10----------------|--------------------------|
A|-7-9-10-----------------------|--------------------------|
E|------------------------------|--------------------------|


e|-7p8h7----7---------------------------|--------------------------|
B|-------10---8-10-7p8h7---7------------|--------------------------|
G|-----------------------9---9-7h9p7----|-7------------------------|
D|-----------------------------------10-|---9/10-7h9p7----7--------|
A|--------------------------------------|--------------10----------|
E|--------------------------------------|--------------------------|


e|------------------------------|--------------------------|
B|------------------------------|--------------------------|
G|------------------------------|--------------------------|
D|------------------------------|--------------------------|
A|-9/10-7h9p7-5h7p5-3h5p3-2h3p2-|-2^^^^---------2.-2.-2.---|
E|------------------------------|---------0-0-0------------|

1:55
e|---------------------------|-------------------------|
B|---------------------------|-------------------------|
G|---------------------------|-------------------------|
D|---------------------------|-------------------------|
A|---7-7-7---6---4---2-------|---7---------------------|
E|-0-------0---0---0---0-3b5-|-0---0-0-0-0-0-0-0-0-0-0-|


e|-----------------------------|-------------------------|
B|-----------------------------|-------------------------|
G|-----------------------------|-------------------------|
D|-----------------------------|-------9-----------------|
A|---7-7---6---4---2-----------|-------7-----------------|
E|-0-----0---0---0---0-3b5-3b5-|-0-0-0---0-0-0-0-0-0-0-0-|


e|-----------------------------|--------------------------------------|
B|-----------------------------|--------------------------------------|
G|-----------------------------|--------------------------------------|
D|-----------------------------|--------------------------------------|
A|-----7-7---6---4-4---2---0-0-|-----0-0---2-2---4-4---6-6/7-7/9-9/11-|
E|-0-0-----0---0-----0---0-----|-3-4-----0-----0-----0----------------|


2:11
e|-0---------------------|--------------------------|
B|-0---------------------|--------------------------|
G|-1-------1---------1---|-------1-----------1-1-1--|
D|-2-2-2-2-2---2-2-2-2---|-2-2-2-2--2-2-2-2--2-2-2--|
A|-2-2-2-2-2---2-2-2-2---|-2-2-2-2--2-2-2-2--2-2-2--|
E|-0-0-0-0-----0-0-0-----|-0-0-0----0-0-0-0------0--|


2:15
e|--------------------------|-----------------------------------|
B|--------------------------|-----------------------------------|
G|--------------------------|-----------------------------------|
D|--------------------------|-9---------------------------------|
A|-12-------9/11----7-7/9-9-|-7---7/6-6-6/4-4/2---4-4/6-6/4-4/2-|
E|-0--0-0-0-0-----0---------|-0-0-0-----0---0---0---0---0---0---|


2:20
e|-0---------------------|--------------------------|
B|-0---------------------|--------------------------|
G|-1-------1---------1---|-------1-----------1-1-1--|
D|-2-2-2-2-2---2-2-2-2---|-2-2-2-2--2-2-2-2--2-2-2--|
A|-2-2-2-2-2---2-2-2-2---|-2-2-2-2--2-2-2-2--2-2-2--|
E|-0-0-0-0-----0-0-0-----|-0-0-0----0-0-0-0------0--|


2:24
e|-0---0---0----2----0---|-0---0---0---------|
B|-0---2---5----3----0---|-0---2---5---4--5--|
G|-1---2---4----2----1---|-1---2---4---3--4--|
D|-2---2---2----0----2---|-2---2---2---1--2--|
A|-2---0-----------------|-2---0-------------|
E|-0---------------------|-0-----------------|


2:33
e|-----------------------------------|
B|*---------------------------------*|
G|-----------------------------------|
D|-----------------------------------|
A|*-6-7^^---6-7^^---6-7^^---6-7-9-7-*|
E|-----------------------------------|


e|---------------------------------|-----------------------------|
B|---------------------------------|-----------------------------|
G|---------------------------------|-----------------------------|
D|---------------------------------|-----------------------------|
A|-6-7^^---6-7^^---6-7^^---6-7-9-7-|-6-7-4-6-2-4-0-2-------------|
E|---------------------------------|-----------------3-0^^^^^^---|
 |
e|---------------------------------|-----------------------------|
B|-----------------------------7---|-----------------------------|
G|---------8-9^^---8-9^^---8-9---9-|-8-9-6-8-4-6-2-4-------------|
D|---------------------------------|-----------------5-2^^^^^^---|
A|---------------------------------|-----------------------------|
E|---------------------------------|-----------------------------|


2:44
e|--------------------------|--------------------------|
B|--------------------------|--------------------------|
G|-9^^^^^^^^^^^^------------|-8^^^^^^^^^^^^------------|
D|--------------------------|--------------------------|
A|-7^^^^^^^^^^^^------------|-6^^^^^^^^^^^^------------|
E|--------------------------|--------------------------|


2:49
e|--0-----------------------|---------------------------|
B|*-0---0---0-0-0-----------|-0---0---0-0-0------------*|
G|--9---9---9-9-9---9--9--9-|-9---9---9-9-9---9--9--9---|
D|--9---9---9-9-9---9--9--9-|-9---9---9-9-9---9--9--9---|
A|*-7---7---7-7-7---7--7--7-|-7---7---7-7-7---7--7--7--*|
E|--0---0-----------0--0--0-|-0---0-----------0--0--0---|


2:59
Arpegio de guitarra difíciles de escuchar sobre Em
(parte con violin) por aproximadamente 18 seg


3:17
Flauta arr. para guitarra:
e|--------------------------|--------------------------|
B|-12^^^^^^-----------------|--------------------------|
G|--------------------14p12-|-14^^^^^^-----------12p11-|
D|--------------------------|--------------------------|
A|--------------------------|--------------------------|
E|--------------------------|--------------------------|


e|--------------------------|--------------------------|
B|--------------------------|--------------12----13----|
G|-12^^^^^^-----------12p11-|-12----14-----------------|
D|--------------------------|--------------------------|
A|--------------------------|--------------------------|
E|--------------------------|--------------------------|


e|--------------------------|--------------------------|
B|-12^^^^^^-----------------|--------------------------|
G|--------------------14p12-|-14^^^^^^-----------12p11-|
D|--------------------------|--------------------------|
A|--------------------------|--------------------------|
E|--------------------------|--------------------------|


e|--------------------------|--------------------------|
B|--------------------------|--------------12----------|
G|-12^^^^^^-----------12p11-|-12----14-----------------|
D|--------------------------|--------------------------|
A|--------------------------|--------------------------|
E|--------------------------|--------------------------|


3:35
  Synt y flauta:
e|---------------------------|--------------------------|
B|*-12^^^^^^-----------------|--------------------------|
G|---------------------14p12-|-14^^^^^^-----------12p11-|
D|---------------------------|--------------------------|
A|*--------------------------|--------------------------|
E|---------------------------|--------------------------|
 |Guitarra
e|--0------------------------|-0------------------------|
B|*-0------------------------|-0------------------------|
G|--9------------------------|-7------------------------|
D|--9------------------------|-7------------------------|
A|*-7------------------------|-5------------------------|
E|--0------------------------|--------------------------|


  Synt y flauta:
e|--------------------------|---------------------------|
B|--------------------------|--------------12----------*|
G|-12^^^^^^-----------12p11-|-12----14------------------|
D|--------------------------|---------------------------|
A|--------------------------|--------------------------*|
E|--------------------------|---------------------------|
 |Guitarra:
e|-0------------------------|-0-------------------------|
B|-0------------------------|-0------------------------*|
G|-5------------------------|-5-------------------------|
D|-5------------------------|-5-------------------------|
A|-3------------------------|-3------------------------*|
E|--------------------------|---------------------------|


3:54
con solo de synteizador:
e|--0-----------------------|---------------------------|x4
B|*-0---0---0-0-0-----------|-0---0---0-0-0------------*|
G|--9---9---9-9-9---9--9--9-|-9---9---9-9-9---9--9--9---|
D|--9---9---9-9-9---9--9--9-|-9---9---9-9-9---9--9--9---|
A|*-7---7---7-7-7---7--7--7-|-7---7---7-7-7---7--7--7--*|
E|--0---0-----------0--0--0-|-0---0-----------0--0--0---|


4:13
Piano arr. para guitarra:
e|----------------------|--------------------------|
B|----------------------|--------------------------|
G|-9-9----9-9----9-9----|-9--9----9--9-----9--9----|
D|-9-9----9-9----9-9----|-10-10---10-10----10-10---|
A|-7-7----7-7----7-7----|-7--7----7--7-----7--7----|
E|-0-0----0-0----0-0----|-0--0----0--0-----0--0----|


e|--------------------------|-----------------------|
B|--------------------------|-----------------------|
G|-9--9-----9--9-----9--9---|-9--9----9--9----9--9--|
D|-11-11----11-11----11-11--|-10-10---10-10---10-10-|
A|-7--7-----7--7-----7--7---|-7--7----7--7----7--7--|
E|-0--0-----0--0-----0--0---|-0--0----0--0----0--0--|


4:23
Improvisación total sobre Em por aproximadamente 27 seg.


4:50
e|----------|-7-7-7-7-7-7--8/10^^--|-7-7-7-7-7-7---------|
B|---7-8-10-|----------------------|--------------10^^^^-|
G|-9--------|----------------------|---------------------|
D|----------|----------------------|---------------------|
A|----------|----------------------|---------------------|
E|----------|----------------------|---------------------|


e|------------------------|-----------------|
B|-8-8-8-8-8-8----7^^^^---|-----------------|
G|------------------------|-9-9-9-9-9-9-9-9-|
D|------------------------|-----------------|
A|------------------------|-----------------|
E|------------------------|-----------------|


5:02
Synt arr. para Guitarra:
e|-7-7-7-7-7-7--8/10^^--|-7--7--7--7--7--7---------|
B|----------------------|--------------------10^^--|
G|----------------------|--------------------------|
D|----------------------|--------------------------|
A|----------------------|--------------------------|
E|----------------------|--------------------------|
 |Guitarra:
e|----------------------|-------------10-7---------|
B|--------------------7-|-8-10-12-----------8b10-8-|
G|----------------7-9---|--------------------------|
D|------------7-9-------|--------------------------|
A|-----7-9-10-----------|--------------------------|
E|----------------------|--------------------------|

e|---------------------------------|-------------------------|
B|-8---8---8---8---8---8---7^^^^---|-------------------------|
G|---------------------------------|-9--9--9--9--9--9--9--9--|
D|---------------------------------|-------------------------|
A|---------------------------------|-------------------------|
E|---------------------------------|-------------------------|
 |
e|---------------------------------|-------------------------|
B|-8-7-----------------------------|-------------------7-7/8-|
G|-----9-7-------------------------|---------------7-9-------|
D|---------9-7------5h7p5----------|-----------7-9-----------|
A|-------------10/9-------7-5-7^^^-|-------7-9---------------|
E|---------------------------------|-------------------------|
 |violin:
e|---------------------------------|-------------------------|
B|---------------------------------|----------------7--8--10-|
G|---------------------------------|-------------9-----------|
D|---------------------------------|-------------------------|
A|---------------------------------|-------------------------|
E|---------------------------------|-------------------------|


e|-7-7-7-7-7-7--8/10^^--|-7---7---7---7---7---7---------|
B|----------------------|-------------------------10^^--|
G|----------------------|-------------------------------|
D|----------------------|-------------------------------|
A|----------------------|-------------------------------|
E|----------------------|-------------------------------|
 |
e|----------------------|-12-10------10p7----7----------|
B|----8----7-8-10-12----|-----------------10---8-10---8-|
G|------10--------------|---------------------------9---|
D|----------------------|-------------------------------|
A|----------------------|-------------------------------|
E|----------------------|-------------------------------|
 |
e|-7^^^^^^^^------10^^--|-----7^^^^^^-------------------|
B|----------------------|--------------------------10^^-|
G|----------------------|-------------------------------|
D|----------------------|-------------------------------|
A|----------------------|-------------------------------|
E|----------------------|-------------------------------|


e|--------------------------------|--------------------------|
B|-8---8---8---8---8---8---7^^^^--|--------------------------|
G|--------------------------------|-9--9--9--9--9--9--9--9---|
D|--------------------------------|--------------------------|
A|--------------------------------|--------------------------|
E|--------------------------------|--------------------------|
 |
e|--------------------------------|--------------------------|
B|------------8p7---7-------------|--------------------------|
G|----------------9---9-7---------|--------------------------|
D|------------------------9-------|-------7-9--------------7-|
A|--------------------------10-7--|-9--10-----10-7----9-10---|
E|--------------------------------|--------------------------|
 |
e|---------------------------------|-------------------------|
B|-----8^^^^^^^^^^---------7^^^^---|----------------7--8--10-|
G|---------------------------------|-----9^^^^---9-----------|
D|---------------------------------|-------------------------|
A|---------------------------------|-------------------------|
E|---------------------------------|-------------------------|


e|------------------------------------|
B|------------------------------------|
G|-9----------------------------------|
D|---9-10-7-9----7--------------------|
A|------------10---9-10-7-9----7------|
E|--------------------------10---8-5--|


e|-------------------------------------|
B|*-----------------------------------*|
G|--9-----------------9----------------|
D|----9-10-7-9----7-----9-10-7-9-------|
A|*------------10---9------------10-7-*|
E|-------------------------------------|


e|--------------------------------------|
B|--------------------------------------|
G|-9------------------------------------|
D|---9-10-7-9----7----------------------|
A|------------10---9-10-7-9----7--------|
E|--------------------------10---8-10-7-|


e|---------------------------------|x4
B|*-------------------------------*|
G|---------------------------------|
D|--2---------------2--------------|
A|*---2-3---2---------2-3---2-----*|
E|--------5---3-5-2-------5---3-0--|


e|--------------------------------------|
B|--------------------------------------|
G|-9------------------9-----------------|
D|---9-10-7-9----7------9-10-7-9----7---|
A|------------10---9-------------10---9-|
E|--------------------------------------|


e|--------------------------------------|
B|--------------------------------------|
G|-9------------------9-----------------|
D|---9-10-7-9----7------9-10-7-9----7---|
A|------------10---9-------------10---9-|
E|--------------------------------------|

5:58
e|---------------------------------|----0-----------||
B|---------------------------------|----0-----------||
G|---------------------------------|----1-----------||
D|---------------------------------|----2-----------||
A|-10-7-9----7---------------------|----2-----------||
E|--------10---7-8-5-7-3-5-2-3-0-2-|-0--0-----------||

Hecho por Luis Loayza
La Paz - Bolivia
Comentarios y correcciones:
louizloayza@gmail.com
Envía el tono de "Tema de natalio" a tu celular/móvil
Este fichero es trabajo propio de su transcriptor y representa su interpretación personal de la canción. El material contenido en esta página es
para exclusivo uso privado, por lo que se prohibe su reproducción o retransmisión, así como su uso para fines comerciales.
© LaCuerda.net · Aviso Legal · Privacidad