Letra y Acordes de los Suaves: Dolores se llamaba Lola
Conexión · Inscripción
Letras y Acordes
Pantalla Completa
Imprimir
Versión Texto
Añadir Favorito
Otras Versiones

Mostrar Diagramas
Desfile Automático
Manipular Acordes
Formato del Texto


los Suaves
Dolores se llamaba Lola
calidad:
suav0103
AUTOR: los Suaves  corregir
ALBUM: desconocido
Enviado por Richar
Corrección de Dolores se llamaba lola
-------------------------------------

INTRO:

e|-----------------|---------------|----------------| x4
b|-----------------|---------------|----------------|
g|-----------------|---------------|-------------7--|
d|-2-------------2-|-------------4-|-------------7--|
a|-0-0-2-0-4-2-0-2-|-0-2-0-4-2-0-4-|-0-2-0-4-2-0-5--|
e|---------------0-|-------------2-|----------------|

Fuiste la niña de azul
en el colegio de monjas
calcetines y coletas
y estabas loca por Paco.
Exámenes y veranos,
vacaciones... y de Paco,
ni el recuerdo de su sombra
ni el olor de su tabaco.


e|-----------------|---------------|----------------| x2
b|-----------------|---------------|----------------|
g|-----------------|---------------|-------------7--|
d|-2-------------2-|-------------4-|-------------7--|
a|-0-0-2-0-4-2-0-2-|-0-2-0-4-2-0-4-|-0-2-0-4-2-0-5--|
e|---------------0-|-------------2-|----------------|

Eres la chica de Andrés
y has sido la de tantos,
eres la niña moderna
que nunca has roto un plato.
Lola, nena de papá
no trabaja, pasa el rato.
Bares, 'Pubs' y discotecas
y así vuelan los años.

Las vueltas que da la vida
el destino se burla de tí.
Dónde vas bala perdida,
dónde vas triste de tí.
Dónde vas triste de tí.

(Un,dos,tres,cua-)

e|-----------------|---------------|----------------| x2
b|-----------------|---------------|----------------|
g|-----------------|---------------|-------------7--|
d|-2-------------2-|-------------4-|-------------7--|
a|-0-0-2-0-4-2-0-2-|-0-2-0-4-2-0-4-|-0-2-0-4-2-0-5--|
e|---------------0-|-------------2-|----------------|

SOLO:

e|------------------|----------------|-----------------|x2
b|------------------|----------------|-----------------|
g|------------------|----------------|-----------------|
d|-7-7-9-7-11-9-7---|-7-9-7-11-9-7---|-7-9-7-11-9-7-12-|
a|----------------7-|--------------9-|-----------------|
e|------------------|----------------|-----------------|

          (La gracia de esta parte es tokar por encima del mástil una si, una no)
e|--------|----------|---------|------------------|-------------------|---------|
b|--------|----------|---------|------------------|-------------------|---------|
g|--------|----------|---------|------------------|-------------------|---------|
d|-7--12--|----------|---------|------------------|-------------------|---------|
a|--------|-0-0-2-0--|-0-0-4-0-|-0-0-5-0--0-0-7-0-|-0-0-9-0--0-0-11-0-|-0-0-12--|
e|--------|----------|---------|------------------|-------------------|---------|

e|---------------|--------------------|---------------|--------------------|
b|---------------|--------------------|---------------|--------------------|
g|---------------|--------------------|---------------|--------------------|
d|-7-9-11-12-14--|-7-9-11-12-14-12-11-|-7-9-11-12-14--|-7-9-11-12-14-12-11-|
a|---------------|--------------------|---------------|--------------------|
e|---------------|--------------------|---------------|--------------------|

e|---------------|--------------------|----------------|---------------------|
b|---------------|--------------------|----------------|---------------------|
g|---------------|--------------------|----------------|---------------------|
d|-7-9-11-12-14--|-7-9-11-12-14-12-11-|-9-11-12-14-16--|-9-11-12-14-16-14-12-|
a|---------------|--------------------|----------------|---------------------|
e|---------------|--------------------|----------------|---------------------|

e|-----------------|-------------------|-------------------------------|
b|-----------------|-------------------|-------------------------------|
g|-----------------|-------------------|-------------------------------|
d|-11-12-14-16-18--|-11-12-14-16-18-19-|-11-12-14-16-18-19-21-19-18-16-|
a|-----------------|-------------------|-------------------------------|
e|-----------------|-------------------|-------------------------------|

e|-----------------------|----------------------|-15----|
b|-----------------------|----------------------|-------|
g|-----------------------|----------------------|-------|
d|-18-16-18-19-21-19-18--|-18-18-19-21-23-21-19-|-------|
a|-----------------------|----------------------|-------|
e|-----------------------|----------------------|-------|

Se fueron los buenos tiempos
la juventud ya se escapó.
Papá ha muerto arruinado
el dinero se esfumó.
¡Pobre! Se encuentra en la calle,
nunca nada supo hacer.
Ahora quema su vida
en 'barra americana' de 7 a 3.

e|-----------------|---------------|----------------| x2
b|-----------------|---------------|----------------|
g|-----------------|---------------|-------------7--|
d|-2-------------2-|-------------4-|-------------7--|
a|-0-0-2-0-4-2-0-2-|-0-2-0-4-2-0-4-|-0-2-0-4-2-0-5--|
e|---------------0-|-------------2-|----------------|

Dolores se llamaba Lola.
'Hace la calle' hasta las 6,
pues sin dinero en esta tierra
¡ay, Dolores!, al burdel.
Fuiste la niña de azul
ahora eres la vieja verde.
¡Como se porta la vida...
cuando vale lo que tienes!

Las vueltas que da la vida
el destino se burla de tí.
Dónde vas bala perdida,
dónde vas triste de tí.
Dónde vas triste de tí.


e|-----------------|---------------|----------------| x2
b|-----------------|---------------|----------------|
g|-----------------|---------------|-------------7--|
d|-2-------------2-|-------------4-|-------------7--|
a|-0-0-2-0-4-2-0-2-|-0-2-0-4-2-0-4-|-0-2-0-4-2-0-5--|
e|---------------0-|-------------2-|----------------|

*SOLO

Acordes:

A E F#m D
e|---|---|----|----| b|---|---|----|----| g|---|---|----|--7-| d|-2-|-2-|-4--|--7-| a|-0-|-2-|-4--|--5-| e|---|-0-|-2--|----| © Copyright 2005 By Richar
Este fichero es trabajo propio de su transcriptor y representa su interpretación personal de la canción. El material contenido en esta página es
para exclusivo uso privado, por lo que se prohibe su reproducción o retransmisión, así como su uso para fines comerciales.

© LaCuerda.net · Aviso Legal · Privacidad