Tablatura para Guitarra de Su Presencia: Hosanna en las alturas
Conexión · Inscripción
Letras y Acordes
Pantalla Completa
Imprimir
Versión Texto
Añadir Favorito
Otras Versiones

Mostrar Diagramas
Desfile Automático
Manipular Acordes
Formato del Texto


Su Presencia
Hosanna en las alturas(TAB)
calidad:
sprs0211
AUTOR: Su Presencia  corregir
ALBUM: El (2012)
Enviado por Javier
E)-----------------------------------
B)--9-8----9-8----9-8----9-8----9-8--
G)------8------8------8------8------8
D)-----------------------------------
A)-----------------------------------
E)-----------------------------------

            Intro

E)-------------------------------------
B)------6\9-8-6--------------\9-8------
G)-4\6------------5-6-6-5-5------------
D)--------------------------------8----
A)-------------------------------------
E)-------------------------------------

E)-------------------------------------
B)------6\9-8-6--------------\9-8--9\11
G)-4\6------------5-6-6-5-5------------
D)-------------------------------------
A)-------------------------------------
E)-------------------------------------



Rey de Majestad, ven y llena este lugar

Con tu luz, con tu luz.

Glorioso salvador, te doy todo mi amor

Me rindo a ti, solo a ti

Cristo es Rey, por toda la eternidad...

CORO


Hosanna, Toda la creación te adorara

Hosanna, al Rey de la cruz que en su trono está


Hosanna, Toda la creación te adorara

Hosanna, al Rey de la cruz que en su trono está


E)-------------------------------------
B)------6\9-8-6--------------\9-8--9\11
G)-4\6------------5-6-6-5-5------------
D)-------------------------------------
A)-------------------------------------
E)-------------------------------------     ---] Rey de M...


              SOLO

E)-------------------------------------------------------------
B)------6\9--11^\11-----8-9-8----8-9--11-9-8---9--------11^\11-
G)--4\6---------------8-------8--------------8---8-4\6---------
D)-------------------------------------------------------------
A)-------------------------------------------------------------
E)-------------------------------------------------------------

E)-------11------8---------------------
B)--\8-9-----8-9-----8-9--11-----------
G)-------------------------------------
D)-------------------------------------
A)-------------------------------------
E)-------------------------------------


Hosanna en las Alturas, y en la tierra paz

Hosanna en las Alturas, y en la tierra paz

Hosanna en las Alturas, y en la tierra paz


Hola Si necesitan más ayuda o alguna información o alguna otra canción
mi Twitter es @JavierGomezRock o si necesitan el tutorial de esta canción
me pueden encontrar en Skype Como javiergomezsurock14
La Canción Al Gran Yo Soy  También la tengo si la desean.
Bueno, Saludos DLB
Este fichero es trabajo propio de su transcriptor y representa su interpretación personal de la canción. El material contenido en esta página es
para exclusivo uso privado, por lo que se prohibe su reproducción o retransmisión, así como su uso para fines comerciales.

© LaCuerda.net · Aviso Legal · Privacidad