Tablatura para Bajo de Soda Stereo: Tratame Suavemente
Conexión · Inscripción
Letras y Acordes
Pantalla Completa
Imprimir
Versión Texto
Añadir Favorito
Otras Versiones

Mostrar Diagramas
Desfile Automático
Formato del Texto


Soda Stereo
Tratame Suavemente(BAJ)
calidad:
soda0585
AUTOR: Daniel Melero
ALBUM: 20 Grandes Éxitos (1984)
Enviado por pablo
           INTRO
G|-------------------------------------------------------------------|
D|-----------------------4---5---4---5---4---5---4---5---------------|
A|---0-0-0-0-0-0-0----2---3---2---3---2---3---2---3------------------|
E|-------------------------------------------------------------------|

    ESTA PARTE X4 VECES
G|-----------------------------------------|
D|----7------------5-------4---------------|
A|-5-------4----3-------2-----0-0----------|
E|------2----------------------------------|

    LUEGO SIGUE ESTA PARTE
G|--------------------------|---------------------------4--------|
D|-----------------------2--|------------------------------------|
A|----5-----7-----4---------|------5-----7-----4-----2-----------|
E|-3-----5-----2------0-----|---3-----5-----2--------------------|

G|---------------------|
D|--------7------------|
A|---5-----------5-----|
E|-3---5---------------|

    *Y ESTAS DOS TABLATURAS SE REPITE X2
*G|----------------|--------------------|
*D|----------------|--------------------|
*A|-5-5-5-5-5-5-5-5|--------------------|
*E|----------------|-2-2-2-2-2-2-2-2----|

*G|----------------|--------------------|
*D|----------------|--------------------|
*A|-3-3-3-3-3-3-3-3|-2-2-2-2--0-0-0-0---|
*E|----------------|--------------------|

  DESPUES SIGUE ESTA PARTE
G|----------------|---------------------|
D|----------------|---------------------|
A|----------------|---------------------|
E|-3-3-3-3-3-3-3-3|-5-5-5-5-5-5-5-5-----|

G|----------------|---------------------|
D|----------------|---------------------|
A|----------------|---------------------|
E|-2-2-2-2-2-2-2-2|-0-0-0-0-0-0-0-0-----|

G|----------------|---------------------|
D|----------------|---------------------|
A|----------------|---------------------|
E|-3-3-3-3-3-3-3-3|-5-5-5-5-5-5-5-5-----|

G|----------------|---------------------|
D|----------------|---------------------|
A|----------------|-2-2-2-2-2-2-2-2-----|
E|-2-2-2-2-2-2-2-2|---------------------|


   DESPUES ESTA PARTE
G|----------------|---------------------|
D|----------------|---------------------|
A|----------------|---------------------|
E|-3-3-3-3-3-3-3-3|-5-5-5-5-5-5-5-5-----|

G|-----------------------5-----------5--------|
D|---4---5---4---5---4----5-----4------5------|
A|-2---3---2---3---2----------2---------------|
E|--------------------------------------------|

    LUEGO ESTO
G|--------------------7/9---------|------4------------|
D|---7------------7/9---------3---|---------4-2-------|
A|-5---4-5-6-7-------------------3|---2----------4----|
E|--------------------------3--3--|-------------------|

G|----4--------------|
D|-------4-2---------|
A|-2-----------------|
E|------------5------|

    LUEGO SIGUE ESTA PARTE X2 VECES
G|------------------------|-------------------4----|------------|
D|------------------------|------------------------|------------|
A|---5---7---4---------9--|-----5---7---4---2------|----5---7---|
E|-3---5---2---0----------|---3---5---2------------|---3---5----|

      DESPUES ESTO X2
G|----------------|----------------|----------------|----------------|
D|----------------|----------------|----------------|----------------|
A|-5-5-5-5-5-5-5-5|----------------|----------------|----------------|
E|----------------|-0-0-0-0-0-0-0-0|-3-3-3-3-3-3-3-3|-5-5-5-5-5-5-5-5|

 LUEGO EL FINAL X4VECES
G|---4--------------|
D|------4-2---------|
A|-2---------4---3--|
E|------------------|
Este fichero es trabajo propio de su transcriptor y representa su interpretación personal de la canción. El material contenido en esta página es
para exclusivo uso privado, por lo que se prohibe su reproducción o retransmisión, así como su uso para fines comerciales.
© LaCuerda.net · Aviso Legal · Privacidad