Tablatura para Guitarra de Soda Stereo: Signos
Conexión · Inscripción
Letras y Acordes
Pantalla Completa
Imprimir
Versión Texto
Añadir Favorito
Otras Versiones

Mostrar Diagramas
Desfile Automático
Manipular Acordes
Formato del Texto


Soda Stereo
Signos(TAB)
calidad:
soda0483
AUTOR: Gustavo Cerati
ALBUM: Signos (1986)
Enviado por Sergio
Este es el intro de guitarra y los versos de signos en su 
concierto de Ruido Blanco ojala les guste


(En las I´s, va una especie de acorde en teclado)
 
1-I-8-7h8p7--------I---12-12-12--11-10--10h11h12----10---
2-I--------8-8-8s10I-10---------------13--------10s8--8s5
3-I---------9------I-------------------------------------
4-I----------------I-------------------------------------
5-I----------------I-------------------------------------
6-I----------------I-------------------------------------

1-I----------------------I
2-I----------------------I
3-I-----7-8H9-7----7-----I
4-I-7-10-------10-7-10s0-I
5-I----------------------I
6-I----------------------I

1-I------15--14-------------------------
2-I-12h13------15-13-12h13p12-----------
3-I--------------------------14-12-12h14
4-I-------------------------------------
5-I-------------------------------------
6-I-------------------------------------

.............................

1----------------------------------------------
2----------------------------------------------
3----------------------------------------------
4------------------------10-12-10--------------
5-12-12-12-12-12-12-12-12--------12-12-12-12-12
6----------------------------------------------

1-----------------------------------------
2----------------13-12-10-----------------
3---------12-11-9--------12-11-9----------
4-10-12-10----------------------12-10-----
5------------------------------------12-10
6-----------------------------------------

1----------------------------------------------
2----------------------------------------------
3----------------------------------------------
4------------------------10-12-10--------------
5-12-12-12-12-12-12-12-12--------12-12-12-12-12
6----------------------------------------------

1--------------------------------------------------------
2----------------13-12h13-15-13h15-17-15h17-19-17h19-20s0
3---------12-11-9----------------------------------------
4-10-12-10-----------------------------------------------
5--------------------------------------------------------
6--------------------------------------------------------

1----------------------------------------------
2----------------------------------------------
3----------------------------------------------
4------------------------10-12-10--------------
5-12-12-12-12-12-12-12-12--------12-12-12-12-12
6----------------------------------------------

1---------------------------------------------
2----------------12-10h12-13-12-10------------
3---------12-11-9-----------------12-11-9-----
4-10-12-10-------------------------------12-10
5---------------------------------------------
6---------------------------------------------

1----------------------------------------------
2----------------------------------------------
3----------------------------------------------
4------------------------10-12-10--------------
5-12-12-12-12-12-12-12-12--------12-12-12-12-12
6----------------------------------------------

1--------------------------------------------------------
2----------------13-12h13-15-13h15-17-15h17-19-17h19-20s0
3---------12-11-9----------------------------------------
4-10-12-10-----------------------------------------------
5--------------------------------------------------------
6--------------------------------------------------------

acaba intro

VERSOS
Am Em G 1-----------I-------------I-----0----I-----0--- 2------5----I------0------I---3---3--I---1---1- 3----5---5--I----0---0----I--4-4-4-4-I--2-2-2-2 4-7-7-7-7-7-I-2-2-2-2-2-2-I-5--------I-3------- 5-----------I-------------I----------I--------- 6-----------I-------------I----------I--------- (SE REPITE EN TODOS LOS VERSOS) cOROS: Am, D; Am7, D, C; Am, D; Am7, D, C (SUENA MEJOR SI HACES LOS ACORDES CON CEJILLA) PARTE PREVIA AL ULTIMO CORO: (es un C#m, solo varia la 1er cuerda) 1-------------------------------------- 2-----9--------9---------9--------9---- 3------9--------9---------9---------9-- 4---11--11---11---11---11--11---11---11 5-11-------11--------11-------11------- 6-------------------------------------- 1-----9-------9-------12-------16 2------9-------9--------9-------- 3-------9-------9--------9------- 4---11------11------11-------11-- 5-11------11------11-------11---- 6--------------------------------(empieza coro por ultima vez) fiN nOTA: LAS DEMAS PARTES DE LA CANCION(entre cada verso) CREO QUE en LA VERSION DE MARIO RANGEL APARECEN BASTANTE BIEN.
Este fichero es trabajo propio de su transcriptor y representa su interpretación personal de la canción. El material contenido en esta página es
para exclusivo uso privado, por lo que se prohibe su reproducción o retransmisión, así como su uso para fines comerciales.
© LaCuerda.net · Aviso Legal · Privacidad