Tablatura para Bajo de Soda Stereo: Signos
Conexión · Inscripción
Letras y Acordes
Pantalla Completa
Imprimir
Versión Texto
Añadir Favorito
Otras Versiones

Mostrar Diagramas
Desfile Automático
Formato del Texto


Soda Stereo
Signos(BAJ)
calidad:
soda0482
AUTOR: Gustavo Cerati
ALBUM: Signos (1986)
Enviado por Jofred
INTRO:
G|-------------------------------------------------|
D|-------------------------------------------------|
A|------3-----------------------1------------------|
E|-5-5---5---3-5-5-3-0---0-3-3---3---3-1-1--1-1--3-| X1


G|-------------------------------------------------|
D|--------------------------------3--3-------------|
A|------3-----------------------1------------------|
E|-5-5---5---3-5-5-3-0---0-3-3---------1-1--1-1--3-| X1

ESTROFA 1 = INTRO
No hay un modo
no hay un punto exacto
te doy todo
y siempre guardo algo

INTERMEDIO:

G|---------------------------------|
D|---------------------------------|
A|---------------------------------|
E|5-------0-------3--------1-------| X1

ESTROFA 2 = INTRO
Si estas oculta
como sabre quien eres
me amas a oscuras
duermes envuelta en redes

CORO:
G|-------------------------------------|
D|-------------------------------------|
A|--------5--------------5---3---------| X2
E|5--3--5--------5--3--5---------------|

G|---------------------------|
D|---------------------------|
A|---------------------------| X1
E|3---------0-3-0-3----------|

INTRO

ESTROFA 3 = INTRO
Mar de fondo
no caere en la trampa
llamame pronto
acertijos bajo el agua

INTERMEDIO

ESTROFA 4 = INTRO
Si algo cedes
calmare tu histeria
con los dientes
rasgare tus medias

CORO II:
G|-------------------------------------|
D|-------------------------------------|
A|--------5--------------5---3---------| X3
E|5--3--5--------5--3--5---------------|

G|-------------------------------------|
D|-------------------------------------|
A|--------5------7--7-7-5-7--5---3-----| X1
E|5--3--5------------------------------|

G|---------------------------|
D|---------------------------|
A|---------------------------| X1
E|3---------0-3-0-3----------|

SOLO:
G|------------------------|
D|---3--------------------|
A|5-----5-----3--3--------| X2
E|---------5--------5--3--|

G|--------------------------------------------|
D|---3--------------------------------6-------|
A|5-----5---------------------7---------------| X1
E|---------5--0-------------------------------|

CORO III:
G|-------------------------------------|    |
D|-------------------------------------|    |
A|--------5--------------5---3---------|    |
E|5--3--5--------5--3--5---------------|    |
                                            | X3
G|-------------------------------------|    |
D|-------------------------------------|    |
A|--------5------7--7-7-5-7--5---3-----|    |
E|5--3--5------------------------------|    |

G|---------------------------|
D|---------------------------|
A|---------------------------| X2
E|3---------0-3-0-3----------|

REPITE CORO III X1
Este fichero es trabajo propio de su transcriptor y representa su interpretación personal de la canción. El material contenido en esta página es
para exclusivo uso privado, por lo que se prohibe su reproducción o retransmisión, así como su uso para fines comerciales.
© LaCuerda.net · Aviso Legal · Privacidad