Tablatura para Guitarra de Soda Stereo: Persiana Americana
Conexión · Inscripción
Letras y Acordes
Pantalla Completa
Imprimir
Versión Texto
Añadir Favorito
Otras Versiones

Mostrar Diagramas
Desfile Automático
Manipular Acordes
Formato del Texto


Soda Stereo
Persiana Americana(TAB)
calidad:
soda0417
AUTOR: Gustavo Cerati, Daffunchio
ALBUM: Signos (1996)
Enviado por Andrés
DE AHORA EN ADELANTE MIS TABLATURAS VAN PARA ALGUIEN MUY MUY HERMOSA
INTELIGENTE CARIÑOSA MEJOR DICHO...
A LOS QUE QUIERAN DARME LAS GRACIAS POR SUBIR ESTAS TABLATURAS NO ME DEN
LAS GRACIAS A MI,SINO A ELLA
a la hermosa "Katherin J Gonzalez"
gracias bonita por tu cariño
si lees esto, recuerda: que siempre me tendras a tu lado incondicionalmente
un beso nena



EFECTOS:

Efecto púa o tremolo bar
Delay.
Middle Gain Distortion
Ambinient Chorus Echo Distortion


EQUIPOS:

Vox AC30.
Delay TC2290 O Nextech de Roland.
Eventide Ultra Harmonizer ó Yamaha Harmonizer.
Mezclador YAMAHA ó Marshall.
Pedalera Midi Mitigator.

GUITARRA IBANEZ Rg2

INTRO: Min 0.34
e|------------------------------------------9---------|]
B|-----------8--7---------------8--7--------7---------|]
G|--------7-------7----------7-------7------7---------|]
D|----10------------10Bis-10-----------9----9---------|]
A|-----------------------------------------------------|]
E|-----------------------------------------------------|]

Min 0.43
e|------------------------------------------------------|]
B|-----------8--7---------------8--7--------7bb--------|]
G|--------7-------7----------7-------7------7bb--------|]
D|----10------------10Bis-10-----------9b---------------|]
A|------------------------------------------------------|]
E|------------------------------------------------------|]

Min 0.53

e|--------------------|]|--------------------|]
B|----7-------10~-----|]|----7-------10~b----|]
G|---(7)-7------------|]|---(7)-7------------|]
D|---------8~---------|]|---------8----------|]
A|--------------------|]|--------------------|]
E|--------------------|]|--------------------|]

e|--------------------|]|--------------------|]|--------------------|]
B|----7-------10~b/---|]|----7-------10~-----|]|--------------------|]
G|---(7)-7------------|]|---(7)-7------------|]|---5--5--5--5-------|]
D|---------8----------|]|---------8----------|]|--5---5---5---------|]
A|--------------------|]|--------------------|]|--------------------|]
E|--------------------|]|--------------------|]|--------------------|]

Min 1.12

e|---7-----7-----7--10----10----10-----------|]
B|----8-----8-----8---8-----8-----8----------|]
G|-------------------------------------------|]
D|-------------------------------------------|]
A|-------------------------------------------|]
E|-------------------------------------------|]

e|---7-----7-----7--10----10----10-----8b----|]
B|----8b----8b----8b—8b----8b-----8b---8b----|]
G|-------------------------------------------|]
D|-------------------------------------------|]
A|-------------------------------------------|]
E|-------------------------------------------|]

Te     Prefiero   fuera  de   foco,    inalcanzable...
Yo  te prefiero   irreversible    casi intocable...
e|--------------------------------------------------1---3-|]
B|--------------------------------------------------3---5-|]
G|--------------------------------------------------3---5-|]
D|--------------------------------------------------------|]
A|--------------------------------------------------------|]
E|--------------------------------------------------------|]

Tus    ropas    caen  lentamente
|----------------------------------|
|----------------------------------|
|--4---------4--------4-------4----|
|----5-----5------------5-------5--|
|-5------5----------5-------5------|
|----------------------------------|

Soy    un   espía   un    espectador
|----------------------------------|
|----------------------------------|
|--4---------4--------4-------4----|
|----5-----5------------5-------5--|
|-5------5----------5-------5------|
|----------------------------------|

Y el ventilador desgarrándote se que te excita pensar hasta donde llegaré

|----------------------------------|--------------------------------|
|-7----7--9----(7)-----------------|--------------------------------|
|-7----7--9----(7)-----------------|--4---------4--------4-------4--|
|-7----7--7----(7)-----------------|---5-----5------------5-------5-|
|----------------------------------|-5------5----------5-------5----|
|----------------------------------|--------------------------------|


Difícil   de    creer
|----------------------------------|
|-7----7--9----(7)-----------------|
|-7----7--9----(7)-----------------|
|-7----7--7----(7)-----------------|
|----------------------------------|
|----------------------------------|


Creo   que  nunca lo  podré saber
|----------------------------------|
|-7----7--9----(7)-----------------|
|-7----7--9----(7)-----------------|
|-7----7--7----(7)-----------------|
|----------------------------------|
|----------------------------------|

Solo   así  Yo te   Veré a través  de  Mi  Persiana  Americana...
|---------------------------3--------7-------------------|
|----7----7--9----(7)-------4--------8-------------------|
|----7----7--9----(7)-------5--------9-------------------|
|----7----7--9----(7)-------5--------9-------------------|
|---------------------------3--------7-------------------|
|---------------------------3--------7-------------------|

 Es  una    condena  agradable  el  instante  previoó...
|-----3--------7------------------------------7-----7-------|
|-----4--------8------------------------------8-----8-------|
|-----5--------9------------------------------9-------------|
|-----5--------9------------------------------9--9----------|
|-----3--------7--------------------------------------------|
|-----3--------7--------------------------------------------|


Es   como  un   desgaste  una  necesidad  más  que  un deseoó...

|-----3--------7-----7--------------------------------7-------|
|-----4--------8-----8--------------------------------8-------|
|-----5--------9-----9----------------------------------------|
|-----5--------9-----9-----------------------------9----------|
|-----3--------7----------------------------------------------|
|-----3--------7----------------------------------------------|

Estamos   al  borde  de la   cornisa.    Casi apunto de  caer
|--------------------7------8-----8----9--------9-------------|
|--------------------8-----7------7--7----------7-------------|
|----------------------------9----9-------8-----8-------------|
|-----------------9-------------------------------------------|
|-------------------------------------------------------------|
|-------------------------------------------------------------|

No sientes    miedo   sigues    sonriendo
|--------------------7------8-----8----9--------9-------------|
|--------------------8-----7------7--7----------7-------------|
|----------------------------9----9-------8-----8-------------|
|-----------------9-------------------------------------------|
|-------------------------------------------------------------|
|-------------------------------------------------------------|

Se     que   te  excita            pensar hasta donde llegaré
|--------------------7------8-----8----9--------9--9--9-10----|
|--------------------8-----7------7--7----------7--7--7-------|
|----------------------------9----9-------8-----8--8--8-------|
|-----------------9-------------------------------------------|
|-------------------------------------------------------------|
|-------------------------------------------------------------|

Difícil   de    creer
|----------------------------------|
|-7----7--9----(7)-----------------|
|-7----7--9----(7)-----------------|
|-7----7--7----(7)-----------------|
|----------------------------------|
|----------------------------------|


Creo   que  nunca lo  podré saber
|----------------------------------|
|-7----7--9----(7)-----------------|
|-7----7--9----(7)-----------------|
|-7----7--7----(7)-----------------|
|----------------------------------|
|----------------------------------|

Solo   así  Yo te   Veré a través  de  Mi  Persiana  Americana...

|-----3--------7------------------------------7-----7-------|
|-----4--------8------------------------------8-----8-------|
|-----5--------9------------------------------9-------------|
|-----5--------9------------------------------9--9----------|
|-----3--------7--------------------------------------------|
|-----3--------7--------------------------------------------|



V Se toca para abajo
^ Se toca para arriba

     V   ^                    V  ^     V V V   ^
|----5---5--------------------5—-5-----5-5-5---5r-------------|
|----5---5--------------------6--6-----6-6-6---7-------------|
|----7---7--------------------7--7-----7-7-7---7-------------|
|----7---7--------4h5—4h5b----7--7-----7-7-7---7---0----0----|
|----5---5--------------------5--5-----5-5-5---5r----7—---7b--|
|----5---5--------------------5--5-----5-5-5---5r-------------|


|----------------------------------0------------3-3h2—---2----|
|----------------------------------7-------------------(3)---|
|----------------------------------7-------------------(4)---|
|----------------------------------6-------------------------|
|------------------(6)h(7)-(5)h(7)-7-------------------------|
|----------------------------------0--------------------------|


e|----------------------------------------------------------9-----|]
B|-----------8--7---------------8--7-------------8-7--------7-----|]
G|--------7-------7----------7-------7---------7-----7------7-----|]
D|----10------------10----10-----------10----10--------9----------|]
A|----------------------------------------------------------------|]
E|----------------------------------------------------------------|]

e|-------------------------------------------------9----------|]
B|--7---------------8--7---------------8--7--------7----------|]
G|----7----------7-------7----------7-------7------7----------|]
D|-----10-----10------------10----10-----------9---9----------|]
A|------------------------------------------------------------|]
E|------------------------------------------------------------|]

Tus    ropas    caen  lentamente
|----------------------------------|
|----------------------------------|
|--4---------4--------4-------4----|
|----5-----5------------5-------5--|
|-5------5----------5-------5------|
|----------------------------------|

Soy    un   espía   un    espectador
|-------7-------------------7-------|
|-------6-------------------7-------|
|-------9-------------------9-------|
|-------9-------------------9-------|
|-------7-------------------7-------|
|-------7-------------------7-------|

Y el ventilador desgarrándote se que te excita pensar hasta donde llegaré
|----------------------------------|--------------------------------|
|-7----7--9----(7)-----------------|--------------------------------|
|-7----7--9----(7)-----------------|--4---------4--------4-------4--|
|-7----7--7----(7)-----------------|---5-----5------------5-------5-|
|----------------------------------|-5------5----------5-------5----|
|----------------------------------|--------------------------------|




Difícil   de    creer   Creo       que  nunca lo  podré saber

|-------4/-------------------7-------|
|-------6/-------------------7-------|
|-------6/-------------------9-------|
|-------5/-------------------9-------|
|-------4/-------------------7-------|
|-------4/-------------------7-------|

Solo   así  Yo te   Veré a través  de  Mi  Persiana  Americana...
|-------6--6-----------------------------------------3---3-------|
|-------7--7-----------------------------------------4---4-------|
|-------8--8-----------------------------------------5---5-------|
|-------8--8-----------------------------------------5---5-------|
|-------6--6-----------------------------------------3---3-------|
|-------6--6-----------------------------------------3---3-------|

Lo   que     pueda         suceder…     No    gastes     fuerzas
para    comprender
|---------3----------------------------------------3---3-------|
|---------4----------------------------------------4---4-------|
|---------5----------------------------------------5---5-------|
|---------5----------------------------------------5---5-------|
|---------3----------------------------------------3---3-------|
|---------3----------------------------------------3---3-------|

Solo   así  Yo te   Veré a través  de  Mi  Persiana  Americana...
|-------6--6-----------------------------------------3---3-------|
|-------7--7-----------------------------------------4---4-------|
|-------8--8-----------------------------------------5---5-------|
|-------8--8-----------------------------------------5---5-------|
|-------6--6-----------------------------------------3---3-------|
|-------6--6-----------------------------------------3---3-------|

Difícil  difícil   de    creer
|--------------------7------8-----8----9--------9--9--9-10----|
|--------------------8-----7------7--7----------7--7--7-------|
|----------------------------9----9-------8-----8--8--8-------|
|-----------------9-------------------------------------------|
|-------------------------------------------------------------|
|-------------------------------------------------------------|


Creo   que  nunca lo  podré saber
|----------------------------------|
|-7----7--9----(7)-----------------|
|-7----7--9----(7)-----------------|
|-7----7--7----(7)-----------------|
|----------------------------------|
|----------------------------------|

Solo   así  Yo te   Veré a través  de  Mi  Persiana  Americana...

|-----3--------7------------------------------7-----7-------|
|-----4--------8------------------------------8-----8-------|
|-----5--------9------------------------------9-------------|
|-----5--------9------------------------------9--9----------|
|-----3--------7--------------------------------------------|
|-----3--------7--------------------------------------------|



Solo   así  Yo te   Veré a través  de  Mi  Persiana  Americana...
                     Se repiten varias veces hacia abajo
|--7--7--7-------------------------3--3------------|
|--8--8--8-------------------------4--4------------|
|--9--9--9-------------------------5--5------------|
|----------------------------------5--5------------|
|----------------------------------3--3------------|
|----------------------------------3--3------------|

SOLO:
|---7-7--7--9-10-10/12b/15----8h7-----7—10-10/—12-12~~~---
|---7-7--7------------------------8-----8--------------------
|-----------------------------------9----8-------------------
|------------------------------------------------------------
|------------------------------------------------------------

Esta parte si la quieren hacer dos trastes arriba estará bien
|--///14--15--17---14-15-17-----14--15--17------14-15--17--
|-///(15)----------------------(15)------------------------
|----------------------------------------------------------
|----------------------------------------------------------
|----------------------------------------------------------
|----------------------------------------------------------
   v  v  v    v A
|--9--9—-9---7-7-------------|
|--10-10-10--8-8-------------|
|--11-11-11--9-9-------------|
|--11-11-11--9-9-------------|
|------------7-7-------------|
|------------7-7-------------|


Cualquier Duda Comentario me escriben sin pena alguna andres194@msn.com
Camilo1_6@yahoo.es
Este fichero es trabajo propio de su transcriptor y representa su interpretación personal de la canción. El material contenido en esta página es
para exclusivo uso privado, por lo que se prohibe su reproducción o retransmisión, así como su uso para fines comerciales.
© LaCuerda.net · Aviso Legal · Privacidad