Tablatura para Guitarra de Soda Stereo: Persiana Americana
Conexión · Inscripción
Letras y Acordes
Pantalla Completa
Imprimir
Versión Texto
Añadir Favorito
Otras Versiones

Mostrar Diagramas
Desfile Automático
Manipular Acordes
Formato del Texto


Soda Stereo
Persiana Americana(TAB)
calidad:
soda0414
AUTOR: Gustavo Cerati, Daffunchio
ALBUM: Signos (1996)
Enviado por JAIR
ENPIESA ASI TRATEN DE DARLE RITMO
e|------------------------------------------------------9---------|]
B|-----------8--7---------------8--7----------8--7------7---------|]
G|--------7-------7----------7-------7-----7-------7----7---------|]
D|----10------------10----10-----------10------------9--9---------|]
A|----------------------------------------------------------------|]
E|----------------------------------------------------------------|]
e|----------------------------------------------------------------|]
B|-----------8--7---------------8--7----------8--7------7bb-------|]
G|--------7-------7----------7-------7-----7-------7----7bb-------|]
D|----10------------10----10-----------10------------9------------|]
A|----------------------------------------------------------------|]
E|----------------------------------------------------------------|]

          D       G        D    G       C   Bm
Yo te prefiero   fuera de foco, inalcanzable
e|--------------------------------------------------1---3-|]
B|--------------------------------------------------3---5-|]
G|--------------------------------------------------3---5-|]
D|--------------------------------------------------------|]
A|--------------------------------------------------------|]
E|--------------------------------------------------------|]
          D
yo te prefiero
G       D      G        C   Bm
irreversible, casi intocable
           Em        C
Tus ropas caen lentamente
|----------------------------------|
|----------------------------------|
|--4---------4--------4-------4----|
|----5-----5------------5-------5--|
|-5------5----------5-------5------|
|----------------------------------|
          Em          C
soy un espia un espectador
|----------------------------------|
|----------------------------------|
|--4---------4--------4-------4----|
|----5-----5------------5-------5--|
|-5------5----------5-------5------|
|----------------------------------|
         Em            C                                             G
y el ventilador desgarrandote  se que te exita pensar hasta donde llegare
|----------------------------------|--------------------------------|
|-7----7--9----(7)-----------------|--------------------------------|
|-7----7--9----(7)-----------------|--4---------4--------4-------4--|
|-7----7--7----(7)-----------------|---5-----5------------5-------5-|
|----------------------------------|-5------5----------5-------5----|
|----------------------------------|--------------------------------|
                C   G
Es dificil de creer
|----------------------------------|
|-7----7--9----(7)-----------------|
|-7----7--9----(7)-----------------|
|-7----7--7----(7)-----------------|
|----------------------------------|
|----------------------------------|
                      Em
creo que nunca lo podre saber
|----------------------------------|
|-7----7--9----(7)-----------------|
|-7----7--9----(7)-----------------|
|-7----7--7----(7)-----------------|
|----------------------------------|
|----------------------------------|
 D           C       G                  Em
solo asi yo te vere a traves de mi persiana americana
|---------------------------3--------7-------------------|
|----7----7--9----(7)-------4--------8-------------------|
|----7----7--9----(7)-------5--------9-------------------|
|----7----7--9----(7)-------5--------9-------------------|
|---------------------------3--------7-------------------|
|---------------------------3--------7-------------------|
D         G         D           G      C   Bm
Es una comedia agradable el instante previo
|-----3--------7------------------------------7-----7-------|
|-----4--------8------------------------------8-----8-------|
|-----5--------9------------------------------9-------------|
|-----5--------9------------------------------9--9----------|
|-----3--------7--------------------------------------------|
|-----3--------7--------------------------------------------|
               D    G      D       G            C  Bm
es todo un desgaste una necesidad más que un deseo
|-----3--------7-----7--------------------------------7-------|
|-----4--------8-----8--------------------------------8-------|
|-----5--------9-----9----------------------------------------|
|-----5--------9-----9-----------------------------9----------|
|-----3--------7----------------------------------------------|
|-----3--------7----------------------------------------------|
            Em             C           Em        C
Estamos al borde de la corniza casi a punto de caer
|--------------------7------8-----8----9--------9-------------|
|--------------------8-----7------7--7----------7-------------|
|----------------------------9----9-------8-----8-------------|
|-----------------9-------------------------------------------|
|-------------------------------------------------------------|
|-------------------------------------------------------------|
            Em                C
no sientes miedo, sigues sonriendo
|--------------------7------8-----8----9--------9-------------|
|--------------------8-----7------7--7----------7-------------|
|----------------------------9----9-------8-----8-------------|
|-----------------9-------------------------------------------|
|-------------------------------------------------------------|
|-------------------------------------------------------------|
             D                            G
se que te excita pensar hasta   donde llegare
|--------------------7------8-----8----9--------9--9--9-10----|
|--------------------8-----7------7--7----------7--7--7-------|
|----------------------------9----9-------8-----8--8--8-------|
|-----------------9-------------------------------------------|
|-------------------------------------------------------------|
|-------------------------------------------------------------|
CORO [ G C G Em D C Bm F  Em ] - INTRO
           Em        C
Tus ropas caen lentamente
|----------------------------------|
|----------------------------------|
|--4---------4--------4-------4----|
|----5-----5------------5-------5--|
|-5------5----------5-------5------|
|----------------------------------|
          Em          C
soy un espia un espectador
|-------7-------------------7-------|
|-------6-------------------7-------|
|-------9-------------------9-------|
|-------9-------------------9-------|
|-------7-------------------7-------|
|-------7-------------------7-------|
         Em            C                   D                            G
y el ventilador desgarrandote se que te excita pensar hasta donde llegare
|----------------------------------|--------------------------------|
|-7----7--9----(7)-----------------|--------------------------------|
|-7----7--9----(7)-----------------|--4---------4--------4-------4--|
|-7----7--7----(7)-----------------|---5-----5------------5-------5-|
|----------------------------------|-5------5----------5-------5----|
|----------------------------------|--------------------------------|
                 C  G
Es dificil de creer
                      Em
creo que nunca lo podre saber
|-------4/-------------------7-------|
|-------6/-------------------7-------|
|-------6/-------------------9-------|
|-------5/-------------------9-------|
|-------4/-------------------7-------|
|-------4/-------------------7-------|
 D           C      Bm                 F
solo asi yo te vere a traves de mi persiana americana
|-------6--6-----------------------------------------3---3-------|
|-------7--7-----------------------------------------4---4-------|
|-------8--8-----------------------------------------5---5-------|
|-------8--8-----------------------------------------5---5-------|
|-------6--6-----------------------------------------3---3-------|
|-------6--6-----------------------------------------3---3-------|

G                 C  G                       Em
lo que pueda suceder no gastes fuerzas para comprender
|-------6--6-----------------------------------------3---3-------|
|-------7--7-----------------------------------------4---4-------|
|-------8--8-----------------------------------------5---5-------|
|-------8--8-----------------------------------------5---5-------|
|-------6--6-----------------------------------------3---3-------|
|-------6--6-----------------------------------------3---3-------|

D           C       Bm                 F             G
solo asi yo te vere a traves de mi persiana americana
|-------6--6-----------------------------------------3---3-------|
|-------7--7-----------------------------------------4---4-------|
|-------8--8-----------------------------------------5---5-------|
|-------8--8-----------------------------------------5---5-------|
|-------6--6-----------------------------------------3---3-------|
|-------6--6-----------------------------------------3---3-------|
 SE REPITE OTRAVES ESTE CORO
BUENO ES ESTA ROLA LA QUE YO E ESCUCHADO AUNQUE HAY OTRAS VERCIONES
ESPERO QUE LES GUSTE CUALQUIER DUDA A MI CORREO
         YES_1994@HOTMAIL.ES
Este fichero es trabajo propio de su transcriptor y representa su interpretación personal de la canción. El material contenido en esta página es
para exclusivo uso privado, por lo que se prohibe su reproducción o retransmisión, así como su uso para fines comerciales.

© LaCuerda.net · Aviso Legal · Privacidad