Tablatura para Guitarra de Soda Stereo: Persiana Americana
Conexión · Inscripción
Letras y Acordes
Pantalla Completa
Imprimir
Versión Texto
Añadir Favorito
Otras Versiones

Mostrar Diagramas
Desfile Automático
Manipular Acordes
Formato del Texto

Soda Stereo
Persiana Americana(TAB)
calidad:
soda0412
AUTOR: Gustavo Cerati, Daffunchio
ALBUM: Signos (1996)
Enviado por Enrique
VERSION GIRA ME VERAS VOLER 2007…


Intro:
B:------------------7---6----------------------------7---6------------
G:-------------6-------------6-------------------6-----------6-------
D:---------9----------------------9----------9-------------------9---

e:---------------------------------------------9 ---
B:------------------7---6----------------------6----
G: -------------6-----------6------------------6----   SE REPITE TODO SOLO
D:----------9------------------8---------------9----   CON UNA VARIACION
                                                       EN EL ÚLTIMO ACORDE
e:-----6---
B:-----6---
G:-----6---
D:-----6---

Riff
B:-------9-------11-----12------
G:-------11------11-----11------
D:-------11------11-----11------


           C#
Yo prefiero
F#              C#    F#   B   Riff
Fuera de foco, inalcanzable
              C#
Yo te prefiero
F#              C#    F#      B   Riff
Irreversible, casi intocable de


D#m                   B
Tus ropas caen lentamente
D#m                   B
Soy un espía, un espectador
D#m                   B
Y el ventilador desgarrándote
                  C#
Sé que te excita pensar
                   F#
Hasta donde llegaré


                  B   F#
Es difícil de creer
                            D#m
Creo que nunca lo podré saber
C#               B
Solo así, yo te veré
F#                       D#m
A través de mi persiana americana



C#               F#     C#
Es una condena agradable
         F#     B   Riff
El instante previo
                 C#
Es todo un desgaste
F#              C#    F#      B   Riff
Una necesidad más que un deseo

D#m                         B
Estamos al borde de la cornisa
             D#m    B
Casi a punto de caer
                      D#m        B
No sientes miedo sigues sonriendo
                  C#
Sé que te excita pensar
                   F#
Hasta donde llegaré

              B     F#
Difícil de creer
                             D#m
Creo que nunca lo podré saber
C#                  B
Solo así, yo te veré
A#m            E            D#m
A través de mi persiana americana

Intro

D#m                   B
Tus ropas caen lentamente
D#m                   B
Soy un espía, un espectador
D#m                   B
Y el ventilador desgarrándote
                  C#
Sé que te excita pensar
                  F#
Hasta donde llegaré


                   B   F#
Es difícil de creer
                           D#m
Creo que nunca lo podré saber
C#               B
Solo así, yo te veré
F#                       D#m
A través de mi persiana americana

F#           B      F#
Lo que pueda suceder
                             D#m
No gastes fuerzas para comprender
 C#                   B
Solo así, yo te veré
A#m               E          F#
A través de mi persiana americana

               B     F#
Difícil de creer
                            D#m
Creo que nunca lo podré saber
C#               B
Solo así, yo te veré
A#m             E             F#
A través de mi persiana americana

                B     F#
Difícil, difícil de creer
                           D#m
Creo que nunca lo podré saber
C#               B
Solo así, yo te veré
A#m                  E           F#
A través de mi persiana americana

Solo:
e:-----6-6-6-8-9-9/11b/14-----7-6h7p6---------9-9-9---9---9--9--9---
B:-----6-6-6--------------------------7--------7-7----11--11-11-11--
G:--------------------------------------8---------------------------

e:---13----14---16----13-14-16---13----14---16----13-14-16----
B:--(14)------------------------(14)--------------------------

e:---18-16-14---13-14-16--
B:-------------(14)-------

                       v
e:-----8---8---8---8---8------6--6--
B:-----9---9---9---9---9------7--7--
G:----10--10--10--10--10------6--6--
D:----10--10--10--10--10------8--8--
A:-----8---8---8---8---8------9--9--

el solo no esta 100% perfecto pero hice lo mejor que pude...
Este fichero es trabajo propio de su transcriptor y representa su interpretación personal de la canción. El material contenido en esta página es
para exclusivo uso privado, por lo que se prohibe su reproducción o retransmisión, así como su uso para fines comerciales.
© LaCuerda.net · Aviso Legal · Privacidad