Tablatura para Guitarra de Soda Stereo: Disco Eterno
Conexión · Inscripción
Letras y Acordes
Pantalla Completa
Imprimir
Versión Texto
Añadir Favorito
Otras Versiones

Mostrar Diagramas
Desfile Automático
Manipular Acordes
Formato del Texto


Soda Stereo
Disco Eterno(TAB)
calidad:
soda0147
AUTOR: Gustavo Cerati, Soda Stereo
ALBUM: Soda Stereo (1995)
Enviado por SoNaC32
Saludos gente
aqui dejandoles una de las mejores
rolas de soda stereo
espero les guste mi version =D

            ACORDES
   D9 Fadd9 Cadd9 Gmaj7 Aadd9
1)---|-----|--3--|-----|-----|
2)-3-|--1--|--3--|--0--|--2--|
3)-2-|--2--|--5--|--4--|--4--|
4)---|--3--|--5--|--5--|--2--|
5)---|--3--|--3--|--5--|-----|
6)---|-----|--3--|--3--|-----|

INTRO:
1)---------------------------------------------->
2)---------------------------------------------->
3)------------------5-4~--------------------2--->
4)-----3-3-3~~----------------3-3-3h5-5h3-----5->
5)-3h5--------5-3-------5-3h5-------------5----->
6)----------------5----------------------------->

1)------------------------------------------------->
2)------------------------------------------------->
3)---------------------5-4~--------------------2--->
4)-------3-3-3~~-----------------3-3-3h5-5h3-----5->
5)---3-5---------5-3-------5-3h5-------------5----->
6)-5-----------------5----------------------------->

1)------------------------------------------------->
2)------------------------------------------------->
3)---------------------5-4~--------------------2--->
4)-------3-3-3~~-----------------3-3-3h5-5h3-----5->
5)-5-3-5---------5-3-------5-3h5-------------5----->
6)-------------------5----------------------------->

1)------------------------------------------------->
2)------------------------------------------------->
3)---------------------5-4~--------------------2--->
4)-------3-3-3~~-----------------3-3-3h5-5h3-----5->
5)---3-5---------5-3-------5-3h5-------------5----->
6)-5-----------------5----------------------------->

1)-------------6-5-3-5-3-----------33333----------->
2)-------------6-5-3-5-3-----------33333-3--------->
3)-----------------------4-4-4-4/5-55554---5h4----->
4)-------3-3-----------------------------------5--->
5)-5-3-5-----5-----------------------------------5->
6)------------------------------------------------->

1)-6-5-3-5-3-------------5----7->
2)-6-5-3-5-3-----------3-------->
3)-----------4-4-4-4/5-----5/7-->
4)------------------------------>
5)------------------------------>
6)------------------------------>

1)---------------------------------------------->
2)---------------------------------------------->
3)------------------5-4~--------------------2--->
4)-----3-3-3~~----------------3-3-3h5-5h3-----5->
5)-3h5--------5-3-------5-3h5-------------5----->
6)----------------5----------------------------->

1)---------------------------------------------------------|
2)---------------------------------------------------------|
3)---------------------5-4~--------------------2-----------|
4)-------3-3-3~~-----------------3-3-3h5-5h3-----5---------|
5)-5-3-5---------5-3-------5-3h5-------------5-----5-3-5/0-|
6)-------------------5-------------------------------------|

  Me sali
fuera de contexto
  Practicar
no te hace perfecto
  poner un disco eterno
 y moverme tornasol

  un espiritu
a veces seguro
otras veces incierto
  quiero descubrir
por que este deseo crece...

1)---------------------------------------------->
2)---------------------------------------------->
3)------------------5-4~--------------------2--->
4)-----3-3-3~~----------------3-3-3h5-5h3-----5->
5)-3h5--------5-3-------5-3h5-------------5----->
6)----------------5----------------------------->

1)---------------------------------------------------------|
2)---------------------------------------------------------|
3)---------------------5-4~--------------------2-----------|
4)-------3-3-3~~-----------------3-3-3h5-5h3-----5---------|
5)-5-3-5---------5-3---------3h5-------------5-----5-3-5/0-|
6)-------------------5-----5-------------------------------|

  Entre los dos
pasa un meridiano
  latitud
de vidas paralelas
  Abrir el sueño stereo
  crear la dimension

  sin disimular
me voy desnudando
con cada sonido
  alta fidelidad
cuando este deseo crece...

1)---------------------------------------------->
2)---------------------------------------------->
3)------------------5-4~--------------------2--->
4)-----3-3-3~~----------------3-3-3h5-5h3-----5->
5)-3h5--------5-3---------3h5-------------5----->
6)----------------5-----5----------------------->

1)------------------------------------------------->
2)------------------------------------------------->
3)---------------------5-4~--------------------2--->
4)-------3-3-3~~-----------------3-3-3h5-5h3-----5->
5)---3-5---------5-3---------3h5-------------5----->
6)-5-----------------5-----5----------------------->

1)------------------------------------------------->
2)------------------------------------------------->
3)---------------------5-4~--------------------2--->
4)-------3-3-3~~-----------------3-3-3h5-5h3-----5->
5)---3-5---------5-3-------5-3h5-------------5----->
6)-5-----------------5----------------------------->

1)------------------------------------------------->
2)------------------------------------------------->
3)---------------------5-4~--------------------2--->
4)-------3-3-3~~-----------------3-3-3h5-5h3-----5->
5)---3-5---------5-3-------5-3h5-------------5----->
6)-5-----------------5----------------------------->

1)-------------6-5-3-5-3-----------33333--------->
2)-------------6-5-3-5-3-----------33333--------->
3)-----------------------4-4-4-4/5-55554-5h4----->
4)-------3-3---------------------------------5--->
5)-5-3-5-----5---------------------------------5->
6)----------------------------------------------->

1)-6-5-3-5-3-------------5----7->
2)-6-5-3-5-3-----------3-------->
3)-----------4-4-4-4/5-----5/7-->
4)------------------------------>
5)------------------------------>
6)------------------------------>

  un espiritu
a veces seguro
otras veces incierto
  quiero descubrir
por que este deseo crece...

1)-3-5----7v-|
2)-----------|
3)-----------|
4)-----------|
5)-----------|
6)-----------|


by: SoNaC 32
Este fichero es trabajo propio de su transcriptor y representa su interpretación personal de la canción. El material contenido en esta página es
para exclusivo uso privado, por lo que se prohibe su reproducción o retransmisión, así como su uso para fines comerciales.

© LaCuerda.net · Aviso Legal · Privacidad