Tablatura para Guitarra de Soda Stereo: De Música Ligera
Conexión · Inscripción
Letras y Acordes
Pantalla Completa
Imprimir
Versión Texto
Añadir Favorito
Otras Versiones

Mostrar Diagramas
Desfile Automático
Manipular Acordes
Formato del Texto

Soda Stereo
De Música Ligera(TAB)
calidad:
soda0135
AUTOR: Hector Bosio, Gustavo Cerati
ALBUM: Cancion Animal (1990)
Enviado por Jose
Aqui lesdejo ya los solos para que la toquen mas chido amigos

Intro:
       Bm           G         D          A
1|------------|----------|----------|----------|
2|------------|----------|----------|----------|
3|-------4----|----------|------7---|----------|
4|-------4----|------5---|------7---|------7---|
5|---2--------|------5---|---5------|------7---|
6|------------|---3------|----------|---5------|

 *****X6 veces antes de comensa a cantar******

Bm          G D       A         Bm    G D  A
Ella durmio,    al calor de las masas
Bm           G  D     A          Bm  G D  A
Y yo desperté,    queriendo soñarla
Bm                 G D   A          Bm     G D  A
Algún tiempo atras,    pensé en escribirle
Bm             G D        A          Bm  G D   A
Y nunca sortié,    las trampas del amor

CORO:

Bm         G-D-A               Bm  G-D-A
De aquel amor,    de música ligera
Bm         G-D-A               Bm  G-D-A
Nada nos libra,   nada más queda

Bajeo:

1|-----------------------------------------------------------------
2|-----------------------------------------------------------------
3|-----------------------------------------------------------------
4|-----------------------------------------------------------------
5|---2--2--4--5----4--5--4--2--0-----2----0--2--2--4--5--4--2--0--2
6|--------------------------------2--------------------------------

1|-----------------------------------------------------------------
2|-----------------------------------------------------------------
3|-----------------------------------------------------------------
4|----------------2--4--2------------------------------------------
5|---2--2--4--5-------------5--4---2---0--2----2--4--5--4--2--0--2-
6|-----------------------------------2-----------------------------



Bm          G-D   A            Bm G-D-A
No le enviaré,    cenizas de rosas
Bm            G-D       A       Bm   G-D-A
Ni pienso evitar,   un roce secreto

CORO:

Bm         G-D-A               Bm  G-D-A
De aquel amor,    de música ligera
Bm         G-D-A               Bm  G-D-A
Nada nos libra,   nada más queda

Solo......(1) * el mas largo

1|-----------------------------------------------------------------
2|---12--10--12--10--12--10-------------10--9--7--10------7--10--10
3|---------------------------11--9--11----------------11-----------
4|-----------------------------------------------------------------
5|-----------------------------------------------------------------
6|-----------------------------------------------------------------

------12--10--9--10--12--10--9--7--9--7--7----------------7--------
--12----------------------------------------11--10--8--7-----11--10
-------------------------------------------------------------------
-------------------------------------------------------------------
-------------------------------------------------------------------
-------------------------------------------------------------------

1|--------7------------7------------7------------7-----------14--12
2|--8--7-----11--8--7-----11--8--7-----11--8--7----11--8--7--------
3|-----------------------------------------------------------------
4|-----------------------------------------------------------------
5|-----------------------------------------------------------------
6|-----------------------------------------------------------------

1|--14--12--14--15--14--12------12--14--15--14--12--10--9--10--12--
2|--------------------------14-------------------------------------
3|-----------------------------------------------------------------
4|-----------------------------------------------------------------
5|-----------------------------------------------------------------
6|-----------------------------------------------------------------

1|--10--9--7--6--5--3-----7--6--5--3-----8--8--7--7--6--3--2--7----
2|---------------------7--------------7--------------------------11
3|-----------------------------------------------------------------
4|-----------------------------------------------------------------
5|-----------------------------------------------------------------
6|-----------------------------------------------------------------

1|--------8--6--3--2--8--6--3--2--10--9--6--3--10--9--6--3--0--10--
2|--8--7-----------------------------------------------------------
3|-----------------------------------------------------------------
4|-----------------------------------------------------------------
5|-----------------------------------------------------------------
6|-----------------------------------------------------------------

1|--9--6--0--10--9--6--|
2|---------------------|
3|---------------------|
4|---------------------|
5|---------------------|
6|---------------------|


CORO:

Bm         G-D     A           Bm  G-D-A
De aquel amor,    de música ligera
Bm         G-D    A         Bm  G-D  A
Nada nos libra,   nada más queda,   nada mas
Bm-G-D-A                    Bm-G-D

A         Bm  G-D  A         Bm
nada más queda,   nada mas queda

A         Bm  G-D  A         Bm
nada más queda,   nada mas queda

Solo.... (2) Mas corto y para terminar la rola

1|----------------------------------------------------------------
2|--12--10--12--10--12--10--7--5--7--10--9--7--5--7--7--10--10--12
3|----------------------------------------------------------------
4|----------------------------------------------------------------
5|----------------------------------------------------------------
6|----------------------------------------------------------------

1|--12--10--9--10--12--10--9--7--9--7--7--9--10--12--10--12--14---
2|--------------------------------------------------------------10
3|----------------------------------------------------------------
4|----------------------------------------------------------------
5|----------------------------------------------------------------
6|----------------------------------------------------------------

y termina con G D D

Te amo Sarahi
ATT: Tolu
Este fichero es trabajo propio de su transcriptor y representa su interpretación personal de la canción. El material contenido en esta página es
para exclusivo uso privado, por lo que se prohibe su reproducción o retransmisión, así como su uso para fines comerciales.
© LaCuerda.net · Aviso Legal · Privacidad