Tablatura para Bajo de Soda Stereo: De Música Ligera
Conexión · Inscripción
Letras y Acordes
Pantalla Completa
Imprimir
Versión Texto
Añadir Favorito
Otras Versiones

Mostrar Diagramas
Desfile Automático
Formato del Texto

Soda Stereo
De Música Ligera(BAJ)
calidad:
soda0134
AUTOR: Hector Bosio, Gustavo Cerati
ALBUM: Cancion Animal (1990)
Enviado por Gilbert
Versión Correcta:

G |--14h16--14-----------------------|
D |-------------12-12--14--12--------|
A |----------------------------14/2--|
E |----------------------------------|

(junto con la guitarra) Bm G D A

G |----------------------------------|
D |-------------5--------------------|
A |--2-------------5-5---------------|
E |------3-3-3----------5-5-5-5-5----| x4

Ella durmió...

G |------------------------------|
D |------------------------------|
A |--2-------------5-------------|
E |-------3-3-3---------5-5-5----| x3

G |--------------------------------|
D |--------------------------------|
A |--2-------------5-4-5-7-5-------|
E |-------3-3-3--------------7/----| *

Algún tiempo atrás...

G |-----------------------------------|
D |---------------5-------------------|
A |-2-2-2-2---------5-5---------------|
E |----------3-3---------5-5-5-5-5----| x4

Las trampas del amor...

G |------------------------------------|
D |-------------7h9-7------------------|
A |-2-2----------------5-5-7-5---------|
E |------3-3-3------------------7/2----|

De aquel amor...

G |-----------------------------------|
D |--------------5--------------------|
A |--2-2------------5-5---------------|
E |-------3-3-3----------5-5-5-5-5----| x3

G |------------------------------------|
D |-------------7h9-7------------------|
A |-2-2----------------5-5-7-5---------|
E |------3-3-3------------------7/2----| *

G |------------------------------|
D |------------------------------|
A |--2-------------5-------------|
E |-------3-3-3---------5-5-5----|

No le enviare...

G |-----------------------------------|
D |---------------5-------------------|
A |-2-2-2-2---------5-5---------------|
E |----------3-3---------5-5-5-5-5----| x3

G |------------------------------------|
D |-------------7h9-7------------------|
A |-2-2----------------5-5-7-5---------|
E |------3-3-3------------------7/2----| *


De aquel amor...

G |-----------------------------------|
D |--------------5--------------------|
A |--2-2------------5-5---------------|
E |-------3-3-3----------5-5-5-5-5----| x3

G |------------------------------------|
D |-------------7h9-7------------------|
A |-2-2----------------5-5-7-5---------|
E |------3-3-3------------------7/2----| *

SOLO

G |------------------------------|
D |------------------------------|
A |--2-------------5-------------|
E |-------3-3-3---------5-5-5----|

De aquel amor...

G |-----------------------------------|
D |--------------5--------------------|
A |--2-2------------5-5---------------|
E |-------3-3-3----------5-5-5-5-5----| x4

EN LA PARTE FINAL:
para mi queda mejor siendo solo la guitarra y el bajo ;)


Nota:

Las partes que tienen * arriba de ellas la tab es de x3
pueden omitir el asterisco osea toda esa linea
para que lo de arriba sea x4 pero no lo recomiendo ;)
lo digo solo si se les hace difícil
pero suena mejor como lo he escrito ;)
Envía el tono de "De Música Ligera" a tu celular/móvil
Este fichero es trabajo propio de su transcriptor y representa su interpretación personal de la canción. El material contenido en esta página es
para exclusivo uso privado, por lo que se prohibe su reproducción o retransmisión, así como su uso para fines comerciales.
© LaCuerda.net · Aviso Legal · Privacidad