Tablatura para Bajo de Soda Stereo: Cuando pase el temblor
Conexión · Inscripción
Letras y Acordes
Pantalla Completa
Imprimir
Versión Texto
Añadir Favorito
Otras Versiones

Mostrar Diagramas
Desfile Automático
Formato del Texto


Soda Stereo
Cuando pase el temblor(BAJ)
calidad:
soda0113
AUTOR: Gustavo Cerati
ALBUM: Nada Personal (1985)
Enviado por semen, basado en Israel
  Am            G9            F             Em
G|-----------------------|-----------------|-------------|-------------|
D|-----------------------|-----------------|-------------|2--2---------|
A|10H1210----------------|-----------------|-------------|-------------|
E|--------12/5-5-5-55-5/3|--3--3--33--3/1--|1--1--11--1--|------00--0--|
(es 10, 12, 10 en A...no confundir con 1, 0, 1, 2, 1, 0)
  Yo, caminare...
  Am            G9           F            Em
G|-------------|------------|-------------|------------|
D|-------------|------------|-------------|x--2--x-----|
A|-------------|------------|-------------|------------|
E|5--5--55--5--|x--3--x--3--|x--1--11--1--|---------0--|

  C            Csus4        Gm           C7
G|------------|-----------|------------|-------------|
D|--2---------|----2------|------------|-------------|
A|3---33--3--x|2-3---33-3-|------5-----|x--3--33--3--|
E|------------|-----------|3--6-----6--|-------------|

  Gm           D            F            B7sus4
G|------------|------------|------------|------------|
D|------------|------------|3----3------|------------|
A|------5-----|x--5--55--5-|------------|2~----------|
E|3--6-----6--|------------|------------|------------|

  Estoy, sentado...
    Am            G9           F            Em
G|-------------|------------|-------------|------------|
D|-------------|------------|-------------|------------|
A|-------------|------------|-------------|------------|
E|5--5--55--5--|x--3--x--3--|x--1--11--1--|x--0--x--0--|

  C            Csus4        Gm           C7
G|------------|-----------|------------|-------------|
D|--2---------|----2------|------------|-------------|
A|3---33--3--x|2-3---33-3-|------5-----|x--3--33--3--|
E|------------|-----------|3--6-----6--|-------------|

  Gm           D            F            B7sus4
G|------------|------------|------------|------------|
D|------------|------------|3----3------|------------|
A|------5-----|x--5--55--5-|------------|2~/7--------|
E|3--6-----6--|------------|------------|------------|


  Hay, una grieta..
  Em            B7            Em            B7
G|-------------|-------------|-------------|-------------|
D|-------------|-------------|-------------|-------------|
A|7--7--77--7--|-------------|7--7--77--7--|-------------|
E|-------------|7--7--77--7--|-------------|7--7--77--7--|

  Am7/9  D6          Am7/9  D6                 Fmaj7/11
G|------------------|----------------------|------------||
D|------------------|----------------------|------------||
A|3-3---------------|----------------------|------------||
E|----88—8--x-8-88-8|--x-8-88-8--x-8-88-8--|1~----------||

Sé, que te encontrare...
    Am            G9           F            Em
G|-------------|-------------|-------------|-------------|
D|-------------|-------------|-------------|-------------|
A|-------------|-------------|-------------|-------------|
E|5--5--55--5--|x--3--33--3--|x--1--11--1--|x--0--00--0--|

  C            Csus4        Gm           C7
G|------------|-----------|------------|-------------|
D|--2---------|----2------|------------|-------------|
A|3---33--3--x|2-3---33-3-|------5-----|x--3--33--3--|
E|------------|-----------|3--6-----6--|-------------|

  Gm           D            F            B7sus4
G|------------|------------|------------|------------|
D|------------|------------|3----3------|------------|
A|------5-----|x--5--55--5-|------------|2~/7--------|
E|3--6-----6--|------------|------------|------------|

Hay, una grieta..
  Em            B7            Em            B7
G|-------------|-------------|-------------|-------------|
D|-------------|-------------|-------------|-------------|
A|7--7--77--7--|-------------|7--7--77--7--|-------------|
E|-------------|7--7--77--7--|-------------|7--7--77--7--|

  Am7/9  D6          Am7/9  D6                Fmaj7/11
G|------------------|------------------------|------------||
D|------------------|------------------------|------------||
A|3-3---------------|------------------------|------------||
E|----88—8--x-8-88-8|-- x-8-88-8-- x-8-88-8--|1~----------||



  Oh,oh oh oh oh....
  Am            G9            F             Em
G|-------------|-------------|-------------|-------------|
D|-------------|-------------|-------------|2------------|
A|-------------|-------------|-------------|-------------|
E|5--5--55--5--|3--3--x-033--|1--1--11--1--|---0--00--0--|

  El temblor...             Despiertame...
  C            D            C            D
G|---------|---------|---------|---------|
D|-----4-5-|---------|-----4-5-|---------|
A|3-3-3-3--|5-5-55-5-|3-3-3-3--|5-5-55-5-|
E|---------|---------|---------|---------|
                           *         4  veces        *
Este fichero es trabajo propio de su transcriptor y representa su interpretación personal de la canción. El material contenido en esta página es
para exclusivo uso privado, por lo que se prohibe su reproducción o retransmisión, así como su uso para fines comerciales.

© LaCuerda.net · Aviso Legal · Privacidad