Tablatura para Guitarra de Soda Stereo: Cuando pase el temblor
Conexión · Inscripción
Letras y Acordes
Pantalla Completa
Imprimir
Versión Texto
Añadir Favorito
Otras Versiones

Mostrar Diagramas
Desfile Automático
Manipular Acordes
Formato del Texto


Soda Stereo
Cuando pase el temblor(TAB)
calidad:
soda0112
AUTOR: Gustavo Cerati
ALBUM: Nada Personal (1985)
Enviado por Andrés
DE AHORA EN ADELANTE MIS TABLATURAS VAN PARA ALGUIEN MUY MUY HERMOSA
INTELIGENTE CARIÑOSA MEJOR DICHO...
A LOS QUE QUIERAN DARME LAS GRACIAS POR SUBIR ESTAS TABLATURAS NO ME DEN
LAS GRACIAS A MI,SINO A ELLA
a la hermosa "KATHERIN J. GONZALEZ"
TE ADORO
si lees esto, recuerda: que siempre me tendras a tu lado incondicionalmente
un beso nena




Acordes:

   Em5     G3     F    Am7     Em8

e---5-----3-----1-----7-----8--|
B---5-----3-----1-----8-----8--|
G---5-----4-----2-----9-----9--|
D---7-----5-----3-----9----10--|
A---7-----5-----3-----7----10--|
E---5-----3-----1-----X-----8--|

   F5    Em3    C5    A     B

e---8-----3-----3-----5-----3--|
B---8-----3-----3-----5-----3--|
G--10-----3-----5-----6-----3--|
D--10-----5-----5-----7-----3--|
A---8-----5-----3-----8-----5--|
E---------3-----------5-----3--|


    C    D      F     H   Dm    E

e---7----10-----5-----8----10----0--|
B---8----10-----7-----8----10----0--|
G---7-----9-----8-----7----10----1--|
D---9----------------------12----2--|
A---7----------------------12----2--|
E--------------------------10----0--|

RIFFS:

Riff 1
e|----------------
B|-1-1-1-0-1-0----
G|-------------0--
D|----------------
A|----------------
E|----------------

Riff 2
e|------------------
B|-1-1-1-0-1-0------
G|-------------0-4--
D|------------------
A|------------------
E|------------------

Riff 3
e|----------------
B|-1-1-1-3-1--------
G|----------------
D|----------------
A|----------------
E|----------------



Riff 4
e|----------------
B|----------------
G|-0-0-0-2-0-3----
D|----------------
A|----------------
E|----------------

Riff 5
e|----------------
B|----------------
G|-4-4-4-2-2-0-----
D|----------------
A|----------------
E|----------------

Riff 6
e|-----1-0-3------
B|-1-1------------
G|----------------
D|----------------
A|----------------
E|----------------

INTRO:

Em5,   G3,   F,   Am7
                               + Riff 1 + Riff 2
Em5,   G3,   F,   Am7


Em5        G3                     F
      Yo,       caminare entre las piedras, + Riff 1 + Riff 2


Am7                Em8
         Hasta sentir el temblor, + Riff 3


F5             Em8
        En mis piernas, + Riff 4


Em3            C5
        A veces tengo temor (lo se)


Em3            Em5       A     B
        A veces verguenza (oh, oh).


 Em5         G3                        F
        Estoy,    sentado en un cráter desierto + Riff 1 + Riff 2


Am7               Em8
        Sigo aguardando el temblor + Riff 3


F5                  Em8
        En mi cuerpo + Riff 4
           tú


     Em3            C5
         Nadie me vio partir (lo se)


Em3             Em5   A    B
         Nadie me espera (oh,oh).


C         D
         Hay una grieta


F        H
         En mi corazón + Riff 5


C        D
         Un planeta


F                 H
         Con desilusión. + Riff 5


C        E…………………………………


Em5        G3                         F
        Se,      que te encontrare en esas ruinas + Riff1 + Riff2


  Am7                   Em8
        ya no tendremos que hablar ( y hablar) + Riff 3



F5            Em8
      Del temblor    + Riff 4


Gm             C5
       Te besare en el temblor (lo se)
                        templo


      Em3             Em5        A    B
         Será un buen momento   (oh, oh


C         D
        Hay una grieta


F          H
        En mi corazón + Riff 5


C       D
        Un planeta + Riff 5


F       H
        Con desilusión. + Riff 5


SOLO:
E|-10/12--7--5/7--5--10/12--7-----5---0---5----
B|--------7-------5---------7-----6---0---6----
G|--------7-------5---------7-----5---0---5----
D|--------7-------5---------7-----7---2---7----
A|--------------------------------8---3---8----
E|--------------------------------5-------5----


-----------------------------------------------------------------
B|-1-1-1-0-1-0----
G|-------------0--

*Riff 2
-------

B|-1-1-1-0-1-0------
G|-------------0-4--

*Riff 3
-------

B|-1-1-1-3-1--

*Riff 4
-------

G|-0-0-0-2-0-3--

*Riff 5
-------

G|-4-4-2-2-0--

*Riff 6
-------

E|-----1-0-3--
B|-1-1--------
-----------------------------------------------------------------


Riff 1 + Riff 2 + Riff 6 + Riff 6 + Riff 1 + Riff2
+ Riff 6

Em5, G3,  F, Am7, C, Dm, Em5 (Repetí hasta terminar con Fade Out)

Oh oh oh El temblor

Despiertame cuando pase el temblor
Despiertame cuando pase el temblor
Despiertame cuando pase el temblor
Despiertame Uh Oh...
Despiertame cuando pase el temblor

EQUIPOS:

Guitarra Gibson 335 GTR PRINCIPAL ACORDE + SOLO--|
Ibanez Rg2 GTR PRINCIPAL ACORDE + SOLO           |ISNTRUMENTOS
Parker fly Classic + Delay - RIFFS_______________|OPCIONALES

Marshall JCM 2000 - DSL 401 Dual (Activo)
Samson STD Inalámbrico.
Vox AC30.
Roland JC120... (Por este salen los efectos)
Delay TC2290 O Nextech de Roland.
Eventide Ultra Harmonizer ó Yamaha Harmonizer.
GP-8 de Roland o la Marshall del pedal.
Distorsionador RAT o Zoom.
MC2 Digitech.
Mezclador YAMAHA ó Marshall.
Pedalera Midi Mitigator.
Wah wah Vox.

CUALQUIIER COSA YA SABEN A MI CORREO___andres194msn.com
Y NOS VEREMOS LAS CARAS ESTE 18 DE OCTUBRE EN EL ESTADIO DE RIVER
ahh y para mis colombianos el 24 de nov
espero nos reunamos todos en bogota
CHAU
Este fichero es trabajo propio de su transcriptor y representa su interpretación personal de la canción. El material contenido en esta página es
para exclusivo uso privado, por lo que se prohibe su reproducción o retransmisión, así como su uso para fines comerciales.
© LaCuerda.net · Aviso Legal · Privacidad