Tablatura para Guitarra de Sin Bandera: Que me alcance la vida
Conexión · Inscripción
Letras y Acordes
Pantalla Completa
Imprimir
Versión Texto
Añadir Favorito
Otras Versiones

Mostrar Diagramas
Desfile Automático
Manipular Acordes
Formato del Texto


Sin Bandera
Que me alcance la vida(TAB)
calidad:
sban0484
AUTOR: Sin Bandera
ALBUM: Mañana (2005)
Enviado por Mike
QUe onda, aqui les mando esta transcripcion de
"Que me alcance la vida"
Buenisima cancion, como ya habia 2 transcripciones, le agregue el
intro y los acordes como son. Ahora si creo que ya no deberian de
poner mas de esta rola. ;) Si tienen alguna duda o pregunta, o les
gustaria escuchar el intro, anexenme al messenger.
Happy 06!

E |--2/4--4-4-4-4--5----------------------4--------------------|
B |-------------------2--2-2/4--4--7-7-7----------4------------|
G |-----------------------------------------4--6---------------|
D |------------------------------------------------------------|
A |-------------0----------2-----------------------------------|
E |--0---------------------------------4-----------------------|

E |-----------------------------------------------------------|
B |-----------------------------------------------------------|
G |--9------9--8-----8--6-----6--4-----4--2-----2--1---1------|
D |-------9--------9--------7--------4--------2------2---2----|
A |----11--------9--------7--------6--------4-----------------|
E |--9---------7--------5--------4--------2--------0----------|

E |----------0/2-----------------------|
B |--------3-------------5-4-2---------|
G |-----2------------------------------|
D |--0---------------2-----------------|
A |----------------2-------------------|
E |------------------------------------|



E7/Gb F#m7 Tantos momentos de felicidad
G#m7 C#m7 tanta caridad y tanta fantasia
A B tanta pasion tanta imaginacion
G#m7 C#m7 y tanto dar amor hasta llegar el dia
F#m7 G#m7 tantas maneras de decir te amo
A B no parece humano lo que tu me das
E7/Gb F#m7 Cada deseo que tu me adivinas
G#m7 C#m7 cada ves que ries rompes mi rutina
A B y la paciencia con la que me escuchas
G#m7 C#m7 y la conviccion con la que siempre luchas
F#m7 G#m7 como me llenas como me liberas
A B F# quiero estar contigo si vuelvo a nacer
Bmaj7 C#7 Le pido a Dios que me alcance la vida
A#m7 D#m7 y me de tiempo para regresar
G#m7 C#7 aunque sea tan solo un poco de
F# F#7 lo mucho que me das
B C#7 Le pido a Dios que me alcance la vida
A#m7 D#7 para deciiiirte
G#m7 C#7 Dmaj7 - B todo lo que siento gracias a tu amor
E7/Gb F#m7 El sentimiento de que no soy yo
G#m7 C#m7 de que hay algo mas cuando tu me miras
A B la sensacion de que no existe el tiempo
G#m7 C#m7 cuando estan tus manos sobre mis mejillas
F#m7 G#m7 como me llenas como me liberas
A B7 F# quiero estar contigo si vuelvo a nacer
B C#7 Le pido a Dios que me alcance la vida
A#m7 D#m7 y me de tiempo para regresar
G#m7 C#7 aunque sea tan solo un poco de
F F7 lo mucho que me das
B C#7 Le pido a Dios que me alcance la vida
A#m7 D#7 para deciiiirte
G#m7 C#7 Bmaj7 todo lo que siento gracias a tu amor
Bmaj7 A#m7 G#m7 Que me da la luz, que hace despertar
A#m7-B que me aleja de la oscuridad
Bmaj7 A#m7 que me llena de calor el mundo
G#m7 C#7 C7-B para que no pierda el rumbooooooooooo
Bmaj7 C#7 Le pido a Dios que me alcance la vida
A#m7 D#m7 y me de tiempo para regresar
G#m7 C#7 aunque sea tan solo un poco de
F F7 lo mucho que me das
B C#7 Le pido a Dios que me alcance la vida
A#m7 D#7 para deciiiirte
G#m7 C#7 Bmaj7-A#m7-G#m7-C#7 F todo lo que siento gracias a tu amor Acordes por orden de aparicion | _ _ | | | || | | | |_||_| | |________| |EADGBE| E7/Gb 024100 F#m7 242222 G#m7 464444 C#m7 446454 A 002220 B 224442 Bmaj7 224342 C#7 446464 A#m7 686666 D#m7 668676 C#7 446464 F# 244322 F#7 242322 D#7 668686 Dmaj7 557675
Este fichero es trabajo propio de su transcriptor y representa su interpretación personal de la canción. El material contenido en esta página es
para exclusivo uso privado, por lo que se prohibe su reproducción o retransmisión, así como su uso para fines comerciales.
© LaCuerda.net · Aviso Legal · Privacidad