Tablatura para Bajo de Sin Bandera: Que lloro
Conexión · Inscripción
Letras y Acordes
Pantalla Completa
Imprimir
Versión Texto
Añadir Favorito
Otras Versiones

Mostrar Diagramas
Desfile Automático
Formato del Texto

Sin Bandera
Que lloro(BAJ)
calidad:
sban0234
AUTOR: Leonel García
ALBUM: De Viaje (2003)
Enviado por Adrian
bueno ps ete tab es para el bajo de cuatro cuerdas
s56a muy facil al cancion
esta bnbn un prof me la enseño y s escucha bnb cunaod
la toko con mis amigos
se la dedico a Daniela Mayreth Garcia Martinez
de camalu baja c.


TAB 001

<< ----------ESTE TAB X2 --->>
E -------7-5-5-5-4-2-----------------------
A -5-5-4-------------2/4---5/7-------------
D -----------------------4-----7/9---------
G ---------------------------------9-------

QUEDATE UN MOMENTO ASI,
NO MIRES HACIA A MI QUE NO PODRÉ AGUANTAR
SI CLAVAS TU MIRADA QUE ME HIELA EL CUERPO
ME HA PASADO ANTES QUE NO PUEDO HABALAR.
E -------7-5-5-5-4-2-----------------------
A -5-5-4-------------2/4---5/7-------------
D -----------------------4-----7/9---------
G ---------------------------------9-------

TAL VEZ PIENSES QUE ESTOY LOCO,
Y ES VERDAD UN POCO TENGO QUE ACÉPTAR
PERO SI NO TE EXPLICO LO QUE SIENTO DENTRO
NO VAS A ENTENDER CUANDO ME VEAS LLORAR.
E -------7-5-5-5-4-2-----------------------
A -5-5-4-------------2/4---5/7-------------
D -----------------------4-----7/9---------
G ---------------------------------9-------

TAL VEZ PIENSES QUE ESTOY LOCO,
Y ES VERDAD UN POCO TENGO QUE ACÉPTAR
PERO SI NO TE EXPLICO LO QUE SIENTO DENTRO
NO VAS A ENTENDER CUANDO ME VEAS LLORAR.
E -------7-5-5-5-4-2-----------------------
A -5-5-4-------------2/4---5/7-------------
D -----------------------4-----7/9---------
G ---------------------------------9-------


NUNCA ME SENTI TAN SOLO
COMO CUANDO AYER DE PRONTO LO ENTENDI
MIENTRAS CALLABA
LA VIDA ME DIJO A GRITOS
QUE NUNCA TE TUVE Y NUNCA TE PERDIY ME EXPLICABA
E -------7-5-5-5-4-2-----------------------
A -5-5-4-------------2/4---5/7-------------
D -----------------------4-----7/9---------
G ---------------------------------9-------

QUE EL AMOR ES UNA COSA
QUE SE DA DEPRONTO EN FORMA NATURALLLENO DE FUEGO
SI LO FORZAS SE MARCHITA
Y SIN TENER PRINCIPIOLLEGA A SU FINAL.
E -------7-5-5-5-4-2-----------------------
A -5-5-4-------------2/4---5/7-------------
D -----------------------4-----7/9---------
G ---------------------------------9-------

Aki es donde el tab cambia

AHORA TAL VEZ LO PUEDAS ENTENDER
QUE SI ME TOCAS SE QUEMA MI PEIL
AHORA TAL VEZ ME PUEDAD ENTENDER
Y NO TE VUELVAS SI NO QUIERES VER.

E -------------------------------------
A -5-5-5-7-7-9-7-7-5-5-5-7-------------
D -------------------------7/9---------
G -----------------------------9-------

QUE LLORO POR TI
QUE LLORO SIN TI
QUE YA LO ENTENDI
QUE NO ERAS PARA MI Y LLORO
E -------0-0-0------0-0-0-------0-0-0----------
A -5-5-5-------5-5-5------5-5-5-------5-5-5-5--
D ---------------------------------------------
G ---------------------------------------------



pz es mi primera transkipcion espero qe els guste

HEY ESTA ROLA ESTA PADRE Y FACIL DE TOCAR
ESPERO QUE LES HAYA GUSTADO

ES GENIAL SER UN BASS

DUDAS O SUGERENCIAS A MI E-MAIL
adguva@hotmail.com

SI LES GUSTA ACEPTO FELICITACIONES Y REGALOS OK
Envía el tono de "Que lloro" a tu celular/móvil
Este fichero es trabajo propio de su transcriptor y representa su interpretación personal de la canción. El material contenido en esta página es
para exclusivo uso privado, por lo que se prohibe su reproducción o retransmisión, así como su uso para fines comerciales.
© LaCuerda.net · Aviso Legal · Privacidad