Tablatura para Guitarra de Sin Bandera: Entra en mi vida
Conexión · Inscripción
Letras y Acordes
Pantalla Completa
Imprimir
Versión Texto
Añadir Favorito
Otras Versiones

Mostrar Diagramas
Desfile Automático
Manipular Acordes
Formato del Texto


Sin Bandera
Entra en mi vida(TAB)
calidad:
sban0017
AUTOR: Lionel García, Noel Schajris
ALBUM: Sin Bandera
Enviado por Danny
**********************************************************************
Acá les dejo corregido arpegio de apertura de la canción...  ....
Saludos y disfrutenlo...
**********************************************************************


e|------------8-7-----1------1-13-12----------|
B|-------3-5------8---------1--------13-10----|
G|-----5------9-7---7-3----2---14-12----10----|
D|---5------------9------3-----------14-------|
A|-3----------------8-------------------------|
E|--------------------------------------------|

e|------------8-7-----10-12-13-------10-12---10-8-----10----|
B|-------3-5------8------------10----------9------8---10----|
G|-----5------9-7---7-------------10----9-----------8-10----|
D|---5------------9---------10------------------8-----9-----|
A|-3----------------8---------------------------------------|
E|----------------------------------------------------------|


Intro C -F -C -Dm -Em -F
Buenas noches, mucho gusto, eras una chica mas después de cinco minutos ya eras alguien especial Sin hablarme, sin tocarme, algo dentro se encendió en tus ojos se hacía tarde y me olvidaba del reloj. Estos días a tu lado me enseñaron que en verdad no hay tiempo de terminar para comenzar a amar Siento algo tan profundo que no tiene explicación no hay razón ni lógica en mi corazón.
C Am
Entra en mi vida, te abro la puerta
F G
se que en tus brazos ya no habrá noches desiertas
C Am
Entra en mi vida, yo te lo ruego te comencé por extrañar, pero empecé
G C
a necesitarte luego. Buenas noches, mucho gusto, ya no existe nadie mas después de este tiempo juntos, no puedo volver atrás Tú me hablaste, me tocaste y te volviste mi ilusión quiero que seas dueña de mi corazón.
C Am
Entra en mi vida, te abro la puerta
F G
sé que en tus brazos ya no habrá noches desiertas
C Am
Entra en mi vida, yo te lo ruego te comencé por extrañar, pero empecé a necesitarte luego.
C F
Entra en mis horas, sálvame ahora
Am Bm F G A
abre tus brazos fuerte y déjame entrar (sube una más)
D Bm
Entra en mi vida, te abro la puerta
G A
sé que en tus brazos ya no habrá noches desiertas
D Bm
Entra en mi vida, yo te lo ruego te comencé por extrañar, pero empecé
A D G
a necesitarte luego
D
te comencé por extrañar, Pero empecé a necesitarte luego DANNY C. dco_1294@hotmail.com
Este fichero es trabajo propio de su transcriptor y representa su interpretación personal de la canción. El material contenido en esta página es
para exclusivo uso privado, por lo que se prohibe su reproducción o retransmisión, así como su uso para fines comerciales.

© LaCuerda.net · Aviso Legal · Privacidad