Tablatura para Guitarra de Sin Bandera: Entra en mi vida
Conexión · Inscripción
Letras y Acordes
Pantalla Completa
Imprimir
Versión Texto
Añadir Favorito
Otras Versiones

Mostrar Diagramas
Desfile Automático
Manipular Acordes
Formato del Texto


Sin Bandera
Entra en mi vida(TAB)
calidad:
sban0014
AUTOR: Lionel García, Noel Schajris
ALBUM: Sin Bandera
Enviado por Juan
Que onda pues esta es la transcripcion correcta en guitarra de esta
rola, esta chida y fue el primer exito de Sin Bandera, espero que les
guste..... Saludos a la banda, y pues gracias a Luis que me la enseño.


intro:


  E-----------------------5---------------------------------------------|
A-3----------------------7----------------------3---------------------|
D---5---------------------5------------------------5------------------|
G-----5------9-7-4---------5-------14-12-9------------5------9-7-4----|
B-------3-5---------3-5-----5----------------10----------3-5-------3-5| e------------8-7-3-----------------13-12-8-------------------8-7-3----|
E--------------------------
A-5-----7------8-----------|
D---7-----9-----10---------|
G-----5-----7-----10-------|
B------6-----8------8------|
e---------------------8----| Buenas noches, mucho gusto, eras una chica mas después de cinco minutos ya eras alguien especial Sin hablarme, sin tocarme, algo dentro se encendió en tus ojos se hacia tarde y me olvidaba del reloj. Estos días a tu lado me enseñaron que en verdad no hay tiempo de terminado para comenzar a amar Siento algo tan profundo que no tiene explicación no hay razón ni lógica en mi corazón. Entra en mi vida, te abro la puerta se que en tus brazos ya no habrá noches desiertas Entra en mi vida, yo te lo ruego te comencé por extrañar, pero empecé a necesitarte luego. Buenas noches, mucho gusto, ya no existe nadie mas después de este tiempo juntos, no puedo volver atrás Tu me hablaste, me tocaste y te volviste mi ilusión quiero que seas dueña de mi corazón. Entra en mi vida, te abro la puerta se que en tus brazos ya no habrá noches desiertas Entra en mi vida, yo te lo ruego te comencé por extrañar, pero empecé a necesitarte luego. Entra en mis horas, sálvame ahora abre tus brazos fuerte y déjame entrar Entra en mi vida, te abro la puerta se que en tus brazos ya no habrá noches desiertas Entra en mi vida, yo te lo ruego te comencé por extrañar, pero empecé a necesitarte luego ...
E-----------------------7--------------------------------------------|
A-5----------------------9--------------------5----------------------|
D---7---------------------7-----------------------7------------------|
G-----7------11-9-6--------7-------16-14-11-----------7-------11-9-6-|
B-------5-7---------5-7-----7----------------12----------5-7---------|
e------------10-9-5----------------15-14-10-------------------10-9-5-| Te comencé por extrañar
E-------------------------------------------|
A-------7----------9------10----------------|
D----------9---------11-----12--------------|
G--------------7-------9------12------------|
B----5-7----------6------8------10----------|
e----------------------------------10-------| pero empecé a necesi--taaaaaaaarte luego....
Este fichero es trabajo propio de su transcriptor y representa su interpretación personal de la canción. El material contenido en esta página es
para exclusivo uso privado, por lo que se prohibe su reproducción o retransmisión, así como su uso para fines comerciales.

© LaCuerda.net · Aviso Legal · Privacidad