Tablatura para Guitarra de Silvio Rodriguez: Oh Melancolia
Conexión · Inscripción
Letras y Acordes
Pantalla Completa
Imprimir
Versión Texto
Añadir Favorito
Otras Versiones

Mostrar Diagramas
Desfile Automático
Manipular Acordes
Formato del Texto


Silvio Rodriguez
Oh Melancolia(TAB)
calidad:
srod1262
AUTOR: Silvio Rodríguez
ALBUM: Oh Melancolia
Enviado por dzib
Esta canción va dedicada muy especialmente A Karina P. S.
la chava más bonita del mundo que a lo mejor no piense en mi
como yo en ella (Pero de todas maneras se la dedico) y ojalá algún día
me pele.

INTRO:

e|-----------------------------------------------------------------||
B|-----------1---1-----------1---1------------3-2-2H3---1-------1--||
G|---------2---4-----------0---4------------2--------------2-0----0||
D|-------3---------------2-----------0--0H3------------------------||
A|-----3---------------3-------------------------------------3-----||
E|-1---------------0------------------------------------1----------||

e|------------------------------1---1-----------------------------||
B|------------0-3-2-3---------3---4---3---------------1------1--1-||
G|----------0---------------3-----------3-----------2----4--------||
D|--------0---------------3---------------3-------3---------------||
A|---------------------1------------------------3----------3----3-||
E|-0H2-3-------------------------------------1--------------------||

e|-----------------------||
B|--------1--------------||
G|------0---4-3--2-------||
D|----2------------------||
A|--3--------------------||
E|---------------1-------||



Hoy viene a mi la damisela soledad
IV Dm
con pamela impertinentes y botón de amapola en el oleaje de sus vuelos, hoy la voluble señorita es amistad y acaricia finamente el corazón
C C7 C
con su más delgado pétalo de hielo.
F C
Por eso hoy, gentilmente te convido a pasear por el patio hasta el florido pabellón de aquel árbol que plantaron los abuelos, hoy el ensueño es como el musgo en el brocal dibujando los abismos de mi amor
C C7 C
melancólico, sutil, pálido cielo. Viene a mí avanza, viene tan despacio,
C G Gm Bb
viene en una danza, leve del espacio cedo, me hago lacio y ya vuelo ave, se mece la nave lenta como el tul, en la brisa suave, niña del azul . . . e|--------------------------------------|| B|--------1-----------1-----------1-----|| G|------0---4------0----3-------0---2---|| D|----2----------2------------2---------|| A|--3----------3------------3-----------|| E|----------------------------------1---|| Oh melancolía, novia silenciosa,
F (V 0,2,3) C (VI 0,2,3) G
íntima pareja del ayer, oh melancolía, amante dichosa,
G D Bb
siempre me arrebata tu placer, oh melancolía, señora del tiempo,
F C B
beso que retorna como el mar, oh melancolía, rosa del aliento,
B7 E C
dime quien me puede amar. Hoy viene a mi la damisela soledad, con pamela impertinentes y botón de amapola en el oleaje de sus vuelos, hoy la voluble señorita es amistad y acaricia finamente el corazón
C C7 C
con su más delgado pétalo de hielo.
F C Dm
Por eso hoy, oh melancolía, señora del tiempo,
F (V 0,2,3) C (VI 0,2,3) G
beso que retorna como el mar, oh melancolía, rosa del aliento,
Gm C F
dime quien me puede amar. FINAL: e|-------------------------------------------------|| B|---------1---1----------1---1-----------1---1----|| G|-------2---4----------0---4-----------2---4----- || FA rasgueo suave D|-----3--------------2---------------3------------|| A|---3--------------3---------------3--------------|| E|-1-------------0---------------1-----------------|| QUISIERA QUE SI ALGUIEN POR ERROR TIENE LA CANCION DE 'EN ESTOS DIAS' Y LA DE 'OH MELANCOLIA'(EN MP3 LAS VERSIONES EN VIVO) POR FAVOR ME ESCRIBAN A MI MAIL Y YO LES PUEDO MANDAR MUCHAS CANCIONES INEDITAS DE SILVIO QUE TENGO. GRACIAS
Este fichero es trabajo propio de su transcriptor y representa su interpretación personal de la canción. El material contenido en esta página es
para exclusivo uso privado, por lo que se prohibe su reproducción o retransmisión, así como su uso para fines comerciales.

© LaCuerda.net · Aviso Legal · Privacidad