Tablatura para Guitarra de Silvio Rodriguez: Angel para un final
Conexi髇 · Inscripci髇
Letras y Acordes
Pantalla Completa
Imprimir
Versi髇 Texto
A馻dir Favorito
Otras Versiones

Mostrar Diagramas
Desfile Autom醫ico
Manipular Acordes
Formato del Texto


Silvio Rodriguez
Angel para un final(TAB)
calidad:
srod0123
AUTOR: Silvio Rodr韌uez
ALBUM: Triptico, Vol. 2
Enviado por Pablo, basado en Hernan
Arpegio en Fa#m
1|-----------5--------4--------2-------------
2|-------2------2--------2--------2----------
3|----2------------2--------2--------2-------
4|-------------------------------------------
5|-------------------------------------------
6|--2----------------------------------------

Arpegio en Re - Re9
1|-----------2---------0---------------------
2|--------3-----3---------3------3---2----0--
3|-----2-----------2---------2---------------
4|--0----------------------------------------
5|-------------------------------------------
6|-------------------------------------------

Arpegio en LA
1|---------------0---------------------------
2|------------2-----2------------------------
3|---------2---------------------------------
4|-----2-------------------------------------
5|--0----------------------------------------
6|-------------------------------------------

Arpegio en Do#m
1|-------------------4-----------------------
2|------------5------------------------------
3|---------6---------------------------------
4|------6---------4--------------------------
5|--4----------------------------------------
6|-------------------------------------------

Arpegio en Re
1|-------------0/2/0-------------------------
2|---------3----------3----------------------
3|------2----------------2-------------------
4|---0---------------------------------------
5|-------------------------------------------
6|-------------------------------------------

Arpegio en Mi
1|-------------------------------------------
2|-------------0-----------------------------
3|---------1------1--------------------------
4|-----2-------------2-----------------------
5|-------------------------------------------
6|--0----------------------------------------


Intro: FA#m - RE - RE9 - LA - DO#m - RE9 - MI(VI-0򈮀 V-02)
A)Cuentan que cuando un silencio aparec韆 entre dos era que pasaba un 醤gel que les robaba la voz y hubo tal silencio el d韆 que nos tocaba olvidar que desde entonces yo todav韆 no termine de callar. A)Todo empez en la sorpresa, en un encuentro casual pero la noche es traviesa cuando se teje la sal sin querer se hace una ofrenda, que pacta con el dolor o pasa un 醤gel, se hace leyenda y se convierte en amor. B)Ahora comprendo cual era el 醤gel que entre nosotros paso
RE LAd MI SId FA#m MI
era el mas terrible, el implacable, el mas feroz ahora comprendo en total este silencio mortal
RE9 LAd LA (DO#7)FA#m
醤gel que pasa, besa y abraza 醤gel para un final. A)Todo empez en la sorpresa... B)Ahora comprendo cual era el 醤gel... Hice esta modificaci髇 agreg醤dole la intro arpegiada que es muy linda e indispensable para el tema, y ademas agregue el acorde de "La" en la intro que estaba faltando.
Este fichero es trabajo propio de su transcriptor y representa su interpretaci髇 personal de la canci髇. El material contenido en esta p醙ina es
para exclusivo uso privado, por lo que se prohibe su reproducci髇 o retransmisi髇, as como su uso para fines comerciales.

© LaCuerda.net · Aviso Legal · Privacidad