Tablatura para Guitarra de Silvio Rodriguez: Al final de este viaje
Conexión · Inscripción
Letras y Acordes
Pantalla Completa
Imprimir
Versión Texto
Añadir Favorito
Otras Versiones

Mostrar Diagramas
Desfile Automático
Manipular Acordes
Formato del Texto


Silvio Rodriguez
Al final de este viaje(TAB)
calidad:
srod0062
AUTOR: Silvio Rodriguez
ALBUM: desconocido
Enviado por Adrian
Antes de empezar, recuerden que silvio afinó su guitarra 2
 tonos más abajo, o sea, en vez de ser la cuerda 6a mi, se
 convierte en Do, Silvio hace lo mismo con las canciones:
 La familia la propiedad privada y el amor, la era esta
 pariendo un corazon, para la de ojala, lo baja solo 1 
tono, y para la de oleo de una mujer con sombrero la toca 
medio tono arriba (6a cuerda debe ser Fa)...

Ya sin más cosas...

Al final de este viaje en la vida...


Introducción 


|----0-0-0-0-------------0-h3-p0----------||-----0-0-0-0-------------0-h3-p0----------||
|--1-1-1-1-1--------1-h3---------1--------||---1-1-1-1-1--------1-h3---------1--------||
|--0-0-0-0-0------2----------------2--0---||---0-0-0-0-0------2----------------2--0---||
|--2-2-2-2-2-0-h3-------------------------||---2-2-2-2-2-0-h3-------------------------||
|----3-3-3-3----------------------------3-||-----3-3-3-3----------------------------3-||
|----0-0-0-0-------------------------3----||-----0-0-0-0-------------------------3----||



|----0-0-0-0-------------0-h3-p0---------1-1-1-0-0-0---3-3-3---8--8--8----||
|--1-1-1-1-1--------1-h3---------1-------3-3-3-1-1-1---3-3-3---8--8--8----||
|--0-0-0-0-0------2----------------2-----0-0-0-0-0-0---0-0-0---9--9--9----||
|--2-2-2-2-2-0-h3--------------------0---0-0-0-0-0-0---0-0-0---10-10-10---||
|----3-3-3-3-------------------------------------------2-2-2---10-10-10---||
|----0-0-0-0---------------------------3-------------3-------8------------||



|-8--8--8--8--8--8--8--8----1-1-1-----------------||
|-8--8--8--8--8--8--8--8----1-1-1-----------------||
|-9--9--9--9--9--9--9--9----2-2-2-----------------||
|-10-10-10-10-10-10-10-10---3-3-3---2-p0-2-p0-----||
|-10------------------------3-3-3-------------3---||
|-8-----------------------1-------3---------------||


Aquí comienza la primera estrofa, y se acompaña así:


"...Al   final    de   este   viaje en la vida quedara, nuestros cuerpos hinchados 

|----0-0-0-0-------------0-h3-p0----------||-----0-0-0-0-------------0-h3-p0----------||
|--1-1-1-1-1--------1-h3---------1--------||---1-1-1-1-1--------1-h3---------1--------||
|--0-0-0-0-0------2----------------2--0---||---0-0-0-0-0------2----------------2--0---||
|--2-2-2-2-2-0-h3-------------------------||---2-2-2-2-2-0-h3-------------------------||
|----3-3-3-3----------------------------3-||-----3-3-3-3----------------------------3-||
|----0-0-0-0-------------------------3----||-----0-0-0-0-------------------------3----||


de ir A LA muerte , al odio al borde del mar..." |----0-0-0-0-------------0-h3-p0--------||---1-1-1-----0-0-0-----3-3-3---1--s3--3-3---|| |--1-1-1-1-1--------1-h3---------1------||---1-1-1-----0-0-0-----3-3-3---1--s3--3-3---|| |--0-0-0-0-0------2----------------2----||---2-2-2-----1-1-1-----4-4-4---2--s4--4-4---|| |--2-2-2-2-2-0-h3--------------------0--||---3-3-3-----2-2-2-----5-5-5---3--s5--5-5---|| |----3-3-3-3----------------------------||---3-3-3-----2-2-2-----5-5-5---3--s5--5-5---|| |----0-0-0-0----------------------------||-1---------0---------3---------1--s5--5-5---|| "...Al final de este viaje en la vida quedará, nuestro rastro invitando a |----0-0-0-0-------------0-h3-p0----------||-----0-0-0-0-------------0-h3-p0----------|| |--1-1-1-1-1--------1-h3---------1--------||---1-1-1-1-1--------1-h3---------1--------|| |--0-0-0-0-0------2----------------2--0---||---0-0-0-0-0------2----------------2--0---|| |--2-2-2-2-2-0-h3-------------------------||---2-2-2-2-2-0-h3-------------------------|| |----3-3-3-3----------------------------3-||-----3-3-3-3----------------------------3-|| |----0-0-0-0-------------------------3----||-----0-0-0-0-------------------------3----|| vivir, por lo menos por eso es que estoy aquí..." |----0-0-0-0-------------0-h3-p0--------||---1-1-1-----0-0-0-----3-3-3---1--s3--3-3---|| |--1-1-1-1-1--------1-h3---------1------||---1-1-1-----0-0-0-----3-3-3---1--s3--3-3---|| |--0-0-0-0-0------2----------------2----||---2-2-2-----1-1-1-----4-4-4---2--s4--4-4---|| |--2-2-2-2-2-0-h3--------------------0--||---3-3-3-----2-2-2-----5-5-5---3--s5--5-5---|| |----3-3-3-3----------------------------||---3-3-3-----2-2-2-----5-5-5---3--s5--5-5---|| |----0-0-0-0----------------------------||-1---------0---------3---------1--s5--5-5---|| Con estos acordes se acompaña la parte "somos prehistoria..." hasta "... estos años son el pasado del ..." |-3----3----3-|| |-1----1----3-|| |-2----2----0-|| |-0----1----0-|| |-3----3----2-|| |-0----1----3-|| y sigue "... c i e l o.......estos años son......cierta agilidad con que el sol |-----0---0----0-----0----------1-1-1-1--2--2--2--2---4---4---4---4--2--2--2--2---|| |-----0---0----0-----0----------1-1-1-1--1--1--1--1---4---4---4---4--1--2--2--2---|| |-----0---0----0-----0----------2-2-2-2--2--2--2--2---5---5---5---5--2--2--2--2---|| |-----2---2-p0-2-p0--2----------3-3-3-3--1--1--1--1---4---4---4---4--1--1--1--1---|| |-----2---2----2-----2----------3-3-3-3--0--0--0--0---6---6---6---6--0--0--0--0---|| |-----0---0----0-----0----------1-1-1-1--0--0--0--0---4---4---4---4--0--0--0--0---|| te dibuja en el porvenir son la verdad o el fin... son Dios |--1--1-1-1-p0--1-p0--0--0-0-0-0-0-0-0-0-0--------4---3----2--2------3--3--3----| |--3--3-3-3-----3-----2--2-2-2-0-0-1-1-1-1--------3---2----1--3------3--3--3----| |--2--2-2-2-----2-----2--2-2-2-0-0-2-2-2-2--------4---3----2--2------4--4-h5----| |--0--0-0-0-----------2--2-2-2-0-0-0-0-0-0--------3---2----1--0------5--5--3----| |--0--0-0-0-----------0--0-0-0-2-3-3-3-3-3--------0---0----0--0------5--5--5----| |--0--0-0-0-----------0--0-0-0-0-0-0-0-0-0--------0---0----0--0------3--3--3----| Bueno la idea del rasgueo puede variar al gusto, después de lo que sigue se repite todo en la guitarra, y les anoto la letra nadamás, recuerden que antes de tocar todo el acorde se toca primero el bajo-
FA DO REm REm/DO SOL "..quedamos los que puedan sonreir**... **Aquí lleva un ligado que es así: |-------------------------|| |-------------------------|| |-------------------------|| |-------------------------|| |-----0-2-5-2-0-h2-p0-----|| |-0-3-----------------3---||
FA DO REm REm/DO SOL ...en medio de la muerte en plena luz ..... (aquí se acompaña con la parte de guitarra "a la muerte, al odio...etc.) ... en plena luz ( Bis) aquí va la letra de lo que sigue y el final "... Al final de este viaje en la vida quedará una cura de timepo y amor, una gasa que envuelva un viejo dolor... ...Al final de este viaje en la vida quedará nuestros cuerpos tendidos al sol como sábanas blancas depués del amor... ...Al final del viaje esta el horizonte, al final del viaje partiremos de nuevo, al final del viaje comienza un camino... otro buen camino... que seguir desclazos contando la arena... al final del viaje estamos tu y yo intactos ... quedamos los que puedan sonreír en medio de la muerte, en plena luz..."
SOL7 DO "...En plena luz.........................................................................." . |----0-0-0-0-------------0-h3-p0----------||-----0-0-0-0-------------0-h3-p0----------|| |--1-1-1-1-1--------1-h3---------1--------||---1-1-1-1-1--------1-h3---------1--------|| |--0-0-0-0-0------2----------------2--0---||---0-0-0-0-0------2----------------2--0---|| |--2-2-2-2-2-0-h3-------------------------||---2-2-2-2-2-0-h3-------------------------|| |----3-3-3-3----------------------------3-||-----3-3-3-3----------------------------3-|| |----0-0-0-0-------------------------3----||-----0-0-0-0-------------------------3----|| Dedico esta transcripción a mi brother, wey ya sabes quien eres... Arriba Silvio... Tóquenlo como Dios manda...
Este fichero es trabajo propio de su transcriptor y representa su interpretación personal de la canción. El material contenido en esta página es
para exclusivo uso privado, por lo que se prohibe su reproducción o retransmisión, así como su uso para fines comerciales.
© LaCuerda.net · Aviso Legal · Privacidad