Tablatura para Guitarra de Selena Gómez: Un año sin ver llover
Conexión · Inscripción
Letras y Acordes
Pantalla Completa
Imprimir
Versión Texto
Añadir Favorito
Otras Versiones

Mostrar Diagramas
Desfile Automático
Manipular Acordes
Formato del Texto

Selena Gómez
Un año sin ver llover(TAB)
calidad:
sgmz0021
AUTOR: Selena Gómez  corregir
ALBUM: desconocido
Enviado por Kevin
INTRO:

Voz:
U..., uuu... u uu...; u u... U..., uuu... u uu...
e|-----------------------------------------|
B|-----------------------------------------|
G|-5----------------------(5)--------------|
D|----8-7-5----8-7,---7-8-----8-7-5----8-7-|
A|-----------8----------------------8------|
E|-----------------------------------------|

Entrada del “piano” (que se indica =(5)):
   C                 Gm
e|-3------3-----3--------3------3------|
B|---5------5-----5--------3------3----|
G|-----5------5-------3-------3------3-|


  Dm                  Dm
e|-5-----5------5--------5------5------|
B|---6-----6------6--------6------6----|
G|-----7------7--------7------7------7-|

**********************************************************************
ESTROFA 1:
Di qué sientes cuando pienso en ti
C          Gm                Dm
e|-------------------------------|
B|-1-1-1-------------1-----------|
G|-------0-----3-3-3---3---2-----|

Una y otra vez
           C
e|-1-0-------|
B|-----1-3---|
G|---------0-|

Cada instante que no estés junto a mí
           Gm                Dm
e|---------------------------------|
B|-1-1-1---------------1-----------|
G|-------0-----3-3-3-3---3-s-2-----|

Mi mundo está al revés
           C
e|---1-0-------|
B|-------1-3---|
G|-2---------0-|

Camino en un desierto cuando tú te vas (oooh…)
            Gm7             Dm
e|-0-0-0-0-0-1-0-------------------|
B|---------------1----3-3-(3-s-1)-|
G|-----------------3-2-------------|

No sé si es un espejismo
Te siento tan real (aal…) Baby!
C             Gm7      Dm
e|-0-0-0-0-0-0-1-0-----------(0-1)-5-3-|
B|-----------------3-1---3-3-----------|
G|--------------------3-2--------------|

**********************************************************************
ESTRIBILLO:
Quiero volverte a ver  para calmar mi ser
C              Gm7
e|---------8-8-----------6-s-5-|
B|-8-8-8-8-----6-6-6-6-8-------|
G|-----------------------------|

Un día sin ti es como un año sin ver llover
  Dm
e|---5---5-5---5---5-6-5---|
B|-6---8-----8---8-------8-|
G|-------------------------|

Si escapas otra vez no sobreviviré
C              Gm7
e|---------8-8-----------6-s-5-|
B|-8-8-8-8-----6-6-6-6-8-------|
G|-----------------------------|

Un día sin ti es como un año sin ver llovee…eeeeeer Ohohoho…
   Dm                      C / Gm / Dm
e|---5---5-5---5---5-6-s-8-8---6-5--------6-5-------6-5--|
B|-6---8-----8---8------------------8---8----6----8----6-|
G|-------------------------------------------------------|

      C / Gm / Dm
Ohohoho… Ohohoho… Ohohoho…
e|-5-6-s-8--6-5------6-5--|
B|--------------8--8----6-|

**********************************************************************
ESTROFA 2:
Contando estrellas oigo en mi mente tu voz
C          Gm                Dm
e|---------------------------------|
B|-1-1-1-1-------------1-----------|
G|---------0-----3-3-3---3-3-s-2---|

 Oyes tú la mía
           C
e|-1-0---------|
B|-----3-1-1-3-|
G|-------------|

Mi corazón está sufriendo la soledad
              Gm        Dm
e|--------------0-------1-0-------|
B|---1-1-1-1-1-1--1---------3-s-6-|
G|-0----------------2-------------|

Soy un desorden
         C
e|-1-0-------|
B|-----3-1-3-|
G|-----------|

Camino en hojas secas si no estás aquí
Y mi vida
            Gm7             Dm
e|-0-0-0-0-0-1-0--------------0-1-3-|
B|---------------1-----3-3--3-------|
G|-----------------3-2--------------|

Regresa que en un diluvio lloraré por ti
(Oh oho..) Baby!
C             Gm7      Dm
e|-0-0-0-0-0-0-1-0-----------(0-1)-5-3-|
B|-----------------1-----3-3-----------|
G|-------------------3-2---------------|

-ESTRIBILLO UNA VEZ MÁS-

**********************************************************************
INTERMEDIO:
Regresa aquí abrázame
     C
e|-------------5---|
B|-6-8-6-8-6-8-----|
G|---------------7-|

Soy un desierto sin tu querer
   Dm
e|-----------5-6-5----|
B|-6-8-6-8-6--------8-|
G|--------------------|

Vuelve pronto a mi, no seas así
        C
e|---10-8-7-8-s-12-8-7-8-|
B|-8---------------------|
G|-----------------------|

Porque un día sin ti es como
            Dm
e|-10-10-12-10-8-7-5-|
B|-------------------|
G|-------------------|

Un año sin ver llovee…eeeeeer
               C / Gm / Dm
e|-5-5-5-5-6-8-8---6-5-------6-5---|
B|---------------------8---8-----6-|
G|---------------------------------|

-ESTRIBILLO UNA VEZ MÁS-

                C / Gm / Dm
          Ohohoho… Ohohoho…
(De fondo está el "piano" (en varias partes))

**********************************************************************
Envía el tono de "Un año sin ver llover" a tu celular/móvil
Este fichero es trabajo propio de su transcriptor y representa su interpretación personal de la canción. El material contenido en esta página es
para exclusivo uso privado, por lo que se prohibe su reproducción o retransmisión, así como su uso para fines comerciales.
© LaCuerda.net · Aviso Legal · Privacidad