Tablatura para Guitarra de Saratoga: Si amaneciera
Conexión · Inscripción
Letras y Acordes
Pantalla Completa
Imprimir
Versión Texto
Añadir Favorito
Otras Versiones

Mostrar Diagramas
Desfile Automático
Manipular Acordes
Formato del Texto

Saratoga
Si amaneciera(TAB)
calidad:
sara0143
AUTOR: Jero
ALBUM: El clan de la lucha (2004)
Enviado por guillermo
Intro
Riff 1
e|----5--4--5/4------------------------5--------------|
B|----7--5-------5/7--7--7/5-----5--7-----5--5---7--5-|
G|-6--------------------------7-----------6----6------|
D|----------------------------------------------------|
A|----------------------------------------------------|
E|----------------------------------------------------|

e|------5-5-----5-----5-----------7-----7-----7-------|
B|----------7-----7-----7-----------9-----9-----------|
G|-6/7--------7-----7-----7--7/9------9-----9---------|
D|----------------------------------------------------|
A|----------------------------------------------------|
E|----------------------------------------------------|

Riff 2
e|----5--5--7--7/9--9--9-----10--7--7/9--9------------|
B|------------------------7---------------------------|
G|-6--------------------------------------------------|
D|----------------------------------------------------|
A|----------------------------------------------------|
E|----------------------------------------------------|

e|-14-14/12-12/10-10/9-9/7-7/5-5/4-4/2-2/4-7-5-4------|
B|-----------------------------------------------7-5--|
G|----------------------------------------------------|
D|----------------------------------------------------|
A|----------------------------------------------------|
E|----------------------------------------------------|

   Am                    G                    F               E
e|----------------------------------------------------------------------|
B|-----------------5-------------------8------5--5h6p5----------------0-|
G|-5-----5---------------7--------7-----------5--5-------7-5--------1---|
D|-7-----7---------------5--------5-------------------------------2-----|
A|--------------------------------------------------------------2-------|
E|------------------------------------------------------------0---------|
   Ahora que mi voz se ha convertido en apenas un suspiro debo descansar
   Am               G                    F                  E
e|--------------------------------------------------------------------|
B|------------5------------------8-------5--5h6p5-------------------0-|
G|-5----5-----------7----7---------------5--5------7--5-----------1---|
D|-7----7-----------5----5--------------------------------------2-----|
A|------------------------------------------------------------2-------|
E|----------------------------------------------------------0---------|
 Hoy que a la mitad de mi camino la evidencia me ha vencido...
   C            G          F               E
e|----------------------------------------------------------|
B|---------5-------------8-5--5h6p5----------------0--------|
G|-5--5---------7------7---5--5------7---5-------1----------|
D|-5--5---------5------5-----------------------2------------|
A|-------------------------------------------2--------------|
E|-----------------------------------------0----------------|
     Se que el tiempo curará        aunque nada siga igual
   C          G            F               E
e|------------------------------------------------------|
B|-------5-----------8--5--5h6p5------------------------|
G|-5--5-------7----7----5--5------7--5------------------|
D|-5--5-------5----5---------------------------2-----2--|
A|-------------------------------------------2-----2----|
E|-----------------------------------------0-----0------|
     No me quiero resignar           no olvidaré

   Am           G               F            E
e|----------------------------------------------------------------|
B|---------5------------------8-----5--5h6p5-------------------0--|
G|-5---5-------7----7---------------5--5-------7-5-----------1----|
D|-7---7-------5----5--------------------------------------2------|
A|-------------------------------------------------------2--------|
E|-----------------------------------------------------0----------|
  Yo que hasta el momento ignoraba en el punto en que se hallaba...
   Am                  G               F             E
e|-------------------------------------------------------------------|
B|-------------5------------------------8----5--5h6p5--------------0-|
G|-5---5---------------7--------7------------5--5-----7-5--------1---|
D|-7---7---------------5--------5------------------------------2-----|
A|-----------------------------------------------------------2-------|
E|---------------------------------------------------------0---------|
  Siento que la vida es como un hilo que se corta de improviso y sin avisar

   C            G          F               E
e|----------------------------------------------------------|
B|---------5-------------8--5--5h6p5---------------0--------|
G|-5-5----------7------7----5--5------7--5-------1----------|
D|-5-5----------5------5-----------------------2------------|
A|-------------------------------------------2--------------|
E|-----------------------------------------0----------------|
     Y en la oscura habitación       necesito oír tu voz

   C            G          F               E
e|--------------------------------------------------------------|
B|-------5------------8---5--5h6p5------------------------------|
G|-5-5-------7------7-----5--5------7--5------------------------|
D|-5-5-------5------5------------------------2-----2----2----2--|
A|-----------------------------------------2-----2----2----2----|
E|---------------------------------------0-----0----0----0------|
     Ahora duermes junto a mí     esperare

  F#m              E
e|---------2---------------0-------|
B|-----------2---------------0-----|
G|-------2-----2---------1-----1---|
D|-----4---------4-----2---------2-|
A|---4---------------2-------------|
E|-2---------------0---------------|
          Si amaneciera sin
   D              C#m
e|---------2---------------4-------|
B|-------3---3-----------5---5-----|
G|-----2-------2-------6-------6---|
D|---4-----------4---6-----------6-|
A|-5---------------4---------------|
E|---------------------------------|
  Ti            yo no se que sería de
  Bm             D
e|---------2-------------2---------|
B|-------3---3---------3---3-------|
G|-----4-------------2-------2-----|
D|---4-------------4-----------4---|
A|-2-----------4-5-----------------|
E|---------------------------------|
  MI
       C#
e|---------------------------------|
B|---------------------------------|
G|---------6-----6-----6-----6-----|
D|-------6-----6-----6-----6-------|
A|-----4-----4-----4-----4---------|
E|---------------------------------|
Hoy la muerte me ha mostrado ya
   F#m               E
e|---------2-----------------0----------|
B|-----------2-----------------0--------|
G|-------2-----2-----------1-----1------|
D|-----4---------4-------2---------2----|
A|---4-------------4---2-------------2--|
E|-2-----------------0------------------|
  Cartas     y no entiendo la
   D              C#m
e|---------2---------------4-------|
B|-------3---3-----------5---5-----|
G|-----2-------2-------6-------6---|
D|---4-----------4---6-----------6-|
A|-5---------------4---------------|
E|---------------------------------|
  Jugada         trato de
   Bm                      G
e|-----2-----2-----2-----2-----2-----2-----2-----2-|
B|-----3-----3-----3-----3-----3-----3-----3-----3-|
G|-------------------------------------------------|
D|-------------------------------------------------|
A|---4-----4-----4-----4-----2-----2-----2-----2---|
E|-2-----2-----2-----2-----3-----3-----3-----3-----|
Salir       no quiero admitir               mi soledad

Am                           G
Duermo apenas cinco o seis minutos
                     F           E
Suficientes para hundirme en la tempestad
 Am                           G
Los demonios que hay bajo la cama
                  F            E
Esta noche no se callan No me dejaran

C      G                F
 El reloj marca las seis
         E
 Lo más duro es el final
C      G           F
 Y la luz se posara
   E
 En el cristal

 Am                          G
Huyo a veces pienso en otra cosa
                F           E
Mi cerebro reacciona no me deja en paz
Am                       G
Y de nuevo vuelve a sacudirme
                 F               E
Ese frío incontenible que es la realidad

C      G              F
 El primer rayo de sol
        E
 Me ilumina el corazón
C       G              F
 Te distingo junto a mí
     E
 Mi salvación

El coro con distorsión se toca así:
    F#     E     D    C#          B   C# D
e|----------------------------------------------------------------------|
B|----------------------------------------------------------------------|
G|---------------7--7-6-------6---4-4-6--7-7----------------------------|
D|--4-4----2-2---7--7-6-------6---4-4-6--7-7----------------------------|
A|--4-4----2-2---5--5-4-------4---2-2-4--5-5---4~------2~---------------|
E|--2-2----0-0--------------------------------------------------5~---4~-|
    Si amaneciera sin ti yo no se que sería de mí hoy la muerte me...

    F#         E          D          C#           B           G
e|---------------------------------------------------------------------|
B|---------------------------------------------------------------------|
G|------------------------7-7-7-7-7--6-6-6-6-6--6-4-4--4--4------------|
D|--4-4-4-4-4--2-2-2-2-2--7-7-7-7-7--6-6-6-6-6--6-4-4--4--4---5-5-5-5--|
A|--4-4-4-4-4--2-2-2-2-2--5-5-5-5-5--4-4-4-4-4--4-2-2--2--2---5-5-5-5--|
E|--2-2-2-2-2--0-0-0-0-0--------------------------------------3-3-3-3--|
PM  . . . .           . . . .      . . . .      . . . .
    Cartas    y no entiendo  la jugada         trato de   salir...

Después toca otra vez la intro y después el solo,
Durante el solo toca lo mismo que el coro con distorsión

     C           G            F      E
e|--------------------------------------------------|
B|--------------------------------------------------|
G|---5----------------------------------------------|
D|---5-----------5-------------3-----2--------------|
A|---3-----------5-------------3-----2--------------|
E|---------------3-------------1-----0--------------|
      Y en la oscura habitación necesito oír tu voz,

     C       G                F   E
e|-----------------------------------------------|
B|-----------------------------------------------|
G|---5-------------------------------------------|
D|---5-------5----------------3---2--------------|
A|---3-------5----------------3---2--------------|
E|-----------3----------------1---0--------------|
      Ahora duermes junto a mi esperaré

     C       G            F        E
e|------------------------------------------------|
B|------------------------------------------------|
G|---5--------------------------------------------|
D|---5-------5------------3--------2--------------|
A|---3-------5------------3--------2--------------|
E|-----------3------------1--------0--------------|
      El primer rayo de sol me ilumina el corazón

     C        G             F      E
e|---------------------------------------------|
B|---------------------------------------------|
G|---5-----------------------------------------|
D|---5--------5-------------3------2-----------|
A|---3--------5-------------3------2-----------|
E|------------3-------------1------0-----------|
       Te distingo junto a mi, mi salvación

Aquí va el coro con distorsión otra vez... y al terminar se queda
tocando el riff 1 y se va desvaneciendo poco a poco...
y fin, y si les sirve saque la melodía de la voz,
que puede servir como algún tipo de solo:

e|-------------------------------5----------------------7----------|
B|--7-9-10-9-----7-5-5-5-5-5-5-5---5-----------6-7-9-10---10-10-7--|
G|-----------7-6---------------------7-6-7-6-7---------------------|
D|-----------------------------------------------------------------|
A|-----------------------------------------------------------------|
E|-----------------------------------------------------------------|

e|-----------------------------------------------------------------|
B|--7-10-9-10-9----------------10----------------------------------|
G|--------------9-11-9-7-9-7-9----7-6-7-6-----6--------------------|
D|----------------------------------------7-9---9-7----------------|
A|--------------------------------------------------9--------------|
E|-----------------------------------------------------------------|
Envía el tono de "Si amaneciera" a tu celular/móvil
Este fichero es trabajo propio de su transcriptor y representa su interpretación personal de la canción. El material contenido en esta página es
para exclusivo uso privado, por lo que se prohibe su reproducción o retransmisión, así como su uso para fines comerciales.
© LaCuerda.net · Aviso Legal · Privacidad