Tablatura para Guitarra de Santiago Cruz: 6:00 Am
Conexión · Inscripción
Letras y Acordes
Pantalla Completa
Imprimir
Versión Texto
Añadir Favorito
Otras Versiones

Mostrar Diagramas
Desfile Automático
Manipular Acordes
Formato del Texto


Santiago Cruz
6:00 Am(TAB)
calidad:
scru0092
AUTOR: Santiago Cruz
ALBUM: Cruce de Caminos (2009)
Enviado por Carlos
INTRO (esta es la guitarra rítmica del inicio en la version acustica,
donde Santiago Cruz toca sin acompañamiento)

Espero les guste


----9/10----9--5--2---x-2-2-x------x-2-2--x--0-0--x---3--3--x
--------------------3-x-3-3-x------x-3-3--x--3-3--x---4--4--x
----10/11---9--6--2---x-2-2-x------x-0-0--x--0-0--x---5--5--x
-0--------------------------x------x------x-------x---------x
----------------------------x------x------x-------x--0------x
------------------------2---x--0-3-x-3----x--0----x---------x

-----9/10--9--5--2---x-2-2-x------x-2-2-x-2-2-x-0-0-x---3-3-e
-------------------3-x-3-3-x------x-3-3-x-3-3-x-3-3-x---4-4-b
----10/11--9--6--2---x-2-2-x------x-0-0-x-2-2-x-0-0-x---5-5-g
--0------------------------x------x-----x-----x-----x-------D
-0-------------------------x------x-----x-----x-----x--0----A
-----------------------2---x--0-3-x-3---x-2---x-0---x-------E


ESTE ES LA PRIMERA CANCION QUE MANDO Y SE LA DEDICO A
UNA GRAN MUJER ....

INTRO

Un suave rayo de luz
se va metiendo por la ventana
D/F#(1) Em7
son las 6 de la mañana y tú estas pegadita a mí No quiero ni respirar por miedo a levantarte del sueño
D/F# (1) Em7
y te des cuenta que contemplo lo que Dios me entregó La vida estuvo de mi lado parece haberse enderezado mi camino por ti El día apenas ha empezado y yo no sé si estoy soñando Duerme Un poco más Hazme imaginar que a mi lado
D/F#(1) A11
es donde encuentras tu paz Duerme un poco más duérmete y quizás mientras duermes sea capaz de curar los dolores de tu vida Duerme... duerme un poco más INTRO Un suave rayo de luz se va metiendo por la ventana
D/F#(1) Em7
son las 6 de la mañana y tú estas pegadita a mí Mis dedos rozan tu piel navegan con destino estremezco
D/F#(1) Em7
por tu amor yo me enloquezco sin temor a mentir La suerte estuvo de mi lado después de haberme ya jugado hasta la vida por ti El día apenas ha empezado y yo no sé si estoy soñando
D
Duerme Un poco más Hazme imaginar que a mi lado
D/F#(1) A11
es donde encuentras tu paz
D
Duerme un poco más duérmete y quizás mientras duermes sea capaz de curar los dolores de tu vida lo que enluta tu sonrisa lo que lloras a escondidas Duerme Un poco más Hazme imaginar que a mi lado
D/F#(1) A11
es donde encuentras tu paz Duerme un poco más duérmete y quizás mientras duermes sea capaz de curar los dolores de tu vida Duerme... duerme un poco más INTRO Acorde final Dmaj7 ACORDES EADgbe D6 XX0202 D XX0232 D/F# 2X023X D/F#(1) 2X0232 Gmaj7 32X032 O 3X0432 Em7 022030 A11 X05430 Bm7 X24232 F#m 244222 Dmaj7 XX0233 G 32X033
Este fichero es trabajo propio de su transcriptor y representa su interpretación personal de la canción. El material contenido en esta página es
para exclusivo uso privado, por lo que se prohibe su reproducción o retransmisión, así como su uso para fines comerciales.

© LaCuerda.net · Aviso Legal · Privacidad