Tablatura para Guitarra de Santana: Hoy es Adios
Conexión · Inscripción
Letras y Acordes
Pantalla Completa
Imprimir
Versión Texto
Añadir Favorito
Otras Versiones

Mostrar Diagramas
Desfile Automático
Manipular Acordes
Formato del Texto

Santana
Hoy es Adios(TAB)
calidad:
sant0572
AUTOR: Santana
ALBUM: Shaman (2002)
Enviado por Carlos
HOY ES ADIOS
Carlos Santana-Alejandro Lerner
Autor:-
Alejandro Lerner

Chidisima Rola
Un saludo ala raza mexicana en los estados unidos
En especial a Mi carnala y mi sobrino
Delmis Claros -Alexis Claros!!!
Besos y abrazos!!!


INTRO:-
   Am                                      Am      
1|-----5-|------------------------|---------------|---------------|
2|-----5-|------------------------|---------------|---------------|
3|-----5-|------------------------|---------------|---------------|
4|--7----|------------------------|---------------|-------------7-|
5|--7----|-7-7-7h8p7--5h7-5h7-----|------------7--|-7-7h8p7-5-----|
6|-----5-|--------------------7/8-|-7-8-9--8-9----|-----------8---|

1|----------------------------|----------|-------------------|-----------------|
2|------5------5-6-5--------5-|-5-6-8-10-|-8-10-8------------|-5-6-8-10-8-10-8-|
3|--5-7---5h7---------7-5-7---|---7-9-10-|--------10-9-7-9-9-|---7-9-10--------|
4|----------------------------|----------|-------------------|-----------------|
5|----------------------------|----------|-------------------|-----------------|
6|----------------------------|----------|-------------------|-----------------|

1|---------------|-------------|-------------5-5-7-8-|
2|-5-5h7p5-------|-----------5-|-5-5h7p5-------------|
3|---------7-5---|---5-7-5-7---|---------7-5---------|
4|-------------7-|-7-----------|---------------------|
5|---------------|-------------|---------------------|
6|---------------|-------------|---------------------|


Am          Dm          F       G
El se fue con el invierno,
Am          Dm          F       G
El se ha ido a trabajar,
Am          Dm          F       G
No me ha escrito en mucho tiempo,
Am          Dm          F       G
El dijo que volvera,
---------------------------------------------------------------------------------

Precoro:-
Am          Dm          
Pero el tiempo paso, 
F           G          
no preguntes por que,
Am          Dm          F       G
el ya no regreso a nuestro hogar.

Am          Dm          
la frontera marco, 
F           G
su destino final,
Am          Dm          F       G
y amis brazos jamas volvio.
--------------------------------------------------------------------------------------
Coro.-
Am          Dm          
hoy es adios, 
F           G
mañana quizas,
Am          Dm          F       G
se que tu vas a volver.

Am          Dm  
hoy es adios,
F           G
mañana quizas,
Am          Dm          F       G
no hay fronteras en nuestro querer.
--------------------------------------------------------------------------------------
Am          Dm          F       G
Ya ha pasado un nuevo invierno,
Am          Dm          F       G
Desde que te vi marchar,
Am          Dm          F       G
No hay mundo mejor que el nuestro,
Am          Dm          F       G
Se que un dia volveras. 
--------------------------------------------------------------------------------------
Precoro:-
Am          Dm          
Pero el tiempo paso, 
F           G          
no preguntes por que,
Am          Dm          F       G
el ya no regreso a nuestro hogar.

Am          Dm          
la frontera marco, 
F           G
su destino final,
Am          Dm          F       G
y amis brazos jamas volvio.

--------------------------------------------------------------------------------------
Coro.-
Am          Dm          
hoy es adios, 
F           G
mañana quizas,
Am          Dm          F       G
se que tu vas a volver.

Am          Dm  
hoy es adios,
F           G
mañana quizas,
Am          Dm          F       G
no hay fronteras en nuestro querer.


Solo:-

1|---------------|-------------|-------------5--|
2|-5-5h7p5-------|-----------5-|-5-5h7p5--------|
3|---------7-5---|---5-7-5-7---|---------7-5----|
4|-------------7-|-7-----------|----------------|
5|---------------|-------------|----------------|
6|---------------|-------------|----------------|

1|--12-12-12-12h13p12----------|----------------12-12-12-12h13p12-------b17-|
2|--------------------15-13----|----13-15-13-15-------------------15-13-----|
3|--------------------------14-|-14-----------------------------------------|
4|-----------------------------|--------------------------------------------|
5|-----------------------------|--------------------------------------------|
6|-----------------------------|--------------------------------------------|


Precoro:-
Am          Dm          
Pero el tiempo paso, 
F           G          
no preguntes por que,
Am          Dm          F       G
el ya no regreso a nuestro hogar.

Am          Dm          
la frontera marco, 
F           G
su destino final,
Am          Dm          F       G
y amis brazos jamas volvio.

--------------------------------------------------------------------------------------
Coro.-
Am          Dm          
hoy es adios, 
F           G
mañana quizas,
Am          Dm          F       G
se que tu vas a volver.

Am          Dm  
hoy es adios,
F           G
mañana quizas,
Am          Dm          F       G
no hay fronteras en nuestro querer.
Precoro:-
Am          Dm          
Pero el tiempo paso, 
F           G          
no preguntes por que,
Am          Dm          F       G
el ya no regreso a nuestro hogar.

Am          Dm          
la frontera marco, 
F           G
su destino final,
Am          Dm          F       G
y amis brazos jamas volvio.

--------------------------------------------------------------------------------------
Coro.-
Am          Dm          
hoy es adios, 
F           G
mañana quizas,
Am          Dm          F       G
se que tu vas a volver.

Am          Dm  
hoy es adios,
F           G
mañana quizas,
Am          Dm          F       G
no hay fronteras en nuestro querer.
Precoro:-
Am          Dm          
Pero el tiempo paso, 
F           G          
no preguntes por que,
Am          Dm          F       G
el ya no regreso a nuestro hogar.

Am          Dm          
la frontera marco, 
F           G
su destino final,
Am          Dm          F       G
y amis brazos jamas volvio.

--------------------------------------------------------------------------------------
Coro.-
Am          Dm          
hoy es adios, 
F           G
mañana quizas,
Am          Dm          F       G
se que tu vas a volver.

Am          Dm  
hoy es adios,
F           G
mañana quizas,
Am          Dm          F       G
no hay fronteras en nuestro querer.
Envía el tono de "Hoy es Adios" a tu celular/móvil
Este fichero es trabajo propio de su transcriptor y representa su interpretación personal de la canción. El material contenido en esta página es
para exclusivo uso privado, por lo que se prohibe su reproducción o retransmisión, así como su uso para fines comerciales.
© LaCuerda.net · Aviso Legal · Privacidad