Tablatura para Guitarra de Rosana: Si tu no estas aquí
Conexión · Inscripción
Letras y Acordes
Pantalla Completa
Imprimir
Versión Texto
Añadir Favorito
Otras Versiones

Mostrar Diagramas
Desfile Automático
Manipular Acordes
Formato del Texto

Rosana
Si tu no estas aquí(TAB)
calidad:
rosn0293
AUTOR: Rosana  corregir
ALBUM: desconocido (2001)
Enviado por alberto
este es el clasico de rosana, es un temazo, espero que os guste!!

notas:
las letras de debajo de la tablatura indican el rasgueo:
p = rasgueo suave hacia abajo con el pulgar sobre los bajos del acorde
m = rasgueo fuerte con los dedos de la mano sobre todo el acorde

si se hace dificil el cambio de acirdes se puede simplificar la cancion con
la progresion D-F#m-G-A-D, epro no suena igual a la original

cejilla 1

  D9      F#m       G                 A
e|-------0-------2-|-3---------3-----|---------0-------|-----------------|
B|-3---3---2-------|-------3-----3---|----0---2--------|-----------------|
G|---2-------2-----|-----4---4-----4-|-----2-2---------|-----------------|
D|-0-----------4---|---5-------------|---2--2----------|-----------------|
A|-----------------|-----------------|-0---------------|-----------------|
E|---------2-------|-3---------------|-----------------|-----------------|

  D9      F#m       G                 A                 D
e|-------0-------2-|-3---------3-----|---------0-------|----0h2---3p2----|
B|-3---3---2-------|-------3-----3---|-------2-----0---|---3---------3---|
G|---2-------2-----|-----4---4-----4-|-----2-----2---2-|--2------2-------|
D|-0-----------4---|---5-------------|---2-------------|-0-----0---------|
A|-----------------|-----------------|-0---------------|--------------02-|
E|---------2-------|-3---------------|-----------------|-----------------|
No quiero estar sin ti si tú no estás aquí me sobra el aire

  D9      F#m       G                 A                 D
e|-------0-------2-|-3---------3-----|-------0-------0-|----0h2---3p2----|
B|-3---3---2-------|-------3-----3---|----0h2--2---2---|---3---------3---|
G|---2-------2-----|-----4---4-----4-|-----------2-----|--2------2-------|
D|-0-----------4---|---5-------------|---2-------------|-0-----0---------|
A|-----------------|-----------------|-0---------------|--------------02-|
E|---------2-----2-|-3---------------|-----------------|-----------------|
No quiero estar así si tú no estás la gente se hace nadie

  D9      F#m       G                 A                 D
e|-------0-------2-|-3---------3-----|---------0-------|----0h2---3p2----|
B|-3---3---2-------|-------3-----3---|-------2-----0---|---3---------3---|
G|---2-------2-----|-----4---4-----4-|-----2-----2---2-|--2------2-------|
D|-0-----------4---|---5-------------|---2-------------|-0-----0---------|
A|-----------------|-----------------|-0---------------|--------------02-|
E|---------2-------|-3---------------|-----------------|-----------------|
Si tú no estás aquí no sé que diablos hago amándote

  D9      F#m       G                 A
e|-------0-------2-|-3---------3-----|-0---------------|-----------------|
B|-3---3---2-------|-------3-----3---|-2---------------|-----------------|
G|---2-------2-----|-----4---4-----4-|-2---------------|-----------------|
D|-0-----------4---|---5-------------|-2---------------|-----------------|
A|-----------------|-----------------|-0---------------|-----------------|
E|---------2-------|-3---------------|-----------------|-----------------|
Si tú no estás aquí sabrás que Dios no va a entender por qué te vas

  D       F#m       G                 A/C#   A          D
e|-----2-------2---|-----3-------3---|-----0-------0---|-----2-------2---|
B|-3---3-------2---|-----3-------3---|-----2-------2---|-3---3-3-----3---|
G|-2---2-------2---|-----4-------4---|-2---2-2-----2---|-2---2-2-----2---|
D|-0---0---4---4---|-5---5-5-----5---|-2---2-2-----2---|-0---0-0-----0---|
A|---------4---4---|-5---5-5-----5---|-4---4-0-----0---|-----------------|
E|---------2---2---|-3---3-3-----3---|-----------------|-----------------|
   p   m   p   m     p   m p     m     p   m p     m     p   m p     m
No quiero estar sin ti si tú no estás aquí me falta el sueño

  D       F#m       G                 A/C#   A          D
e|-----2-------2---|-----3-------3---|-----0-------0---|-----2-------2---|
B|-3---3-------2---|-----3-------3---|-----2-------2---|-3---3-3-----3---|
G|-2---2-------2---|-----4-------4---|-2---2-2-----2---|-2---2-2-----2---|
D|-0---0---4---4---|-5---5-5-----5---|-2---2-2-----2---|-0---0-0-----0---|
A|---------4---4---|-5---5-5-----5---|-4---4-0-----0---|-----------------|
E|---------2---2---|-3---3-3-----3---|-----------------|-----------------|
   p   m   p   m     p   m p     m     p   m p     m     p   m p     m
No quiero andar así latiendo un corazón de amor sin dueño

  F#m               G                 A/C#   A          D
e|-----2-------2---|-----3-------3---|-----0-------0---|-----2-------2---|
B|-----2-------2---|-----3-------3---|-----2-------2---|-3---3-3-----3---|
G|-----2-------2---|-----4-------4---|-2---2-2-----2---|-2---2-2-----2---|
D|-4---4-4-----4---|-5---5-5-----5---|-2---2-2-----2---|-0---0-0-----0---|
A|-4---4-4-----4---|-5---5-5-----5---|-4---4-0-----0---|-----------------|
E|-2---2-2-----2---|-3---3-3-----3---|-----------------|-----------------|
   p   m p     m     p   m p     m     p   m p     m     p   m p     m
Si tú no estás aquí no sé que diablos hago amándote

  F#m               G                 A/C#   A          D
e|-----2-------2---|-----3-------3---|-----0-------0---|-----2-------2---|
B|-----2-------2---|-----3-------3---|-----2-------2---|-3---3-3-----3---|
G|-----2-------2---|-----4-------4---|-2---2-2-----2---|-2---2-2-----2---|
D|-4---4-4-----4---|-5---5-5-----5---|-2---2-2-----2---|-0---0-0-----0---|
A|-4---4-4-----4---|-5---5-5-----5---|-4---4-0-----0---|-----------------|
E|-2---2-2-----2---|-3---3-3-----3---|-----------------|-----------------|
   p   m p     m     p   m p     m     p   m p     m     p   m p     m
Si tú no estás aquí sabrás que Dios no va a entender por qué te vas

  D                 G                 A      A/C#  A    Bm
e|-----2-------2---|-----3-------3---|-----5-------0---|-----2-------2---|
B|-3---3-3-----3---|-----3-------3---|-----5-------2---|-----3-------3---|
G|-2---2-2-----2---|-----4-------4---|-----6-2-----2---|-4---4-4-----4---|
D|-0---0-0-----0---|-5---5-5-----5---|-7---7-2-----2---|-4---4-4-----4---|
A|-----------------|-5---5-5-----5---|-7---7-4-----0---|-2---2-2-----2---|
E|-----------------|-3---3-3-----3---|-5---5-----------|-----------------|
   p   m p     m     p   m p     m     p   m p     m     p   m p     m
Derramaré mis sueños si algún día no te tengo
Lo más grande se hará lo más pequeño

  F#m               Bm                A/C#   A          Bm       G
e|-----2-------2---|-----2-------2---|-----0-------0---|-----2-------3---|
B|-----2-------2---|-----3-------3---|-----2-------2---|-----3-------3---|
G|-----2-------2---|-4---4-4-----4---|-2---2-2-----2---|-4---4-4-----4---|
D|-4---4-4-----4---|-4---4-4-----4---|-2---2-2-----2---|-4---4-4-5---5---|
A|-4---4-4-----4---|-2---2-2-----2---|-4---4-0-----0---|-2---2-2-5---5---|
E|-2---2-2-----2---|-----------------|-----------------|---------3---3---|
   p   m p     m     p   m p     m     p   m p     m     p   m p p   m
Pasearé en un cielo sin estrellas esta vez
Tratando de entender quién hizo un infierno el paraíso

  D       F#m       Bm      A/C# A    G                 Bm
e|-----2-------2---|-----2-------0---|-----3-------3---|-----2-------2---|
B|-3---3-------2---|-----3-------2---|-----3-------3---|-----3-------3---|
G|-2---2-------2---|-4---4---2---2---|-----4-------4---|-4---4-4-----4---|
D|-0---0---4---4---|-4---4---2---2---|-5---5-5-----5---|-4---4-4-----4---|
A|---------4---4---|-2---2---4---0---|-5---5-5-----5---|-2---2-2-----2---|
E|---------2---2---|-----------------|-3---3-3-----3---|-----------------|
   p   m   p   m     p   m   p   m     p   m p     m     p   m p     m
No te vayas nunca porque no puedo estar sin ti
Si tú no estás aquí me quema el aire

  D
e|-----2-------2---|
B|-3---3-3-----3---|
G|-2---2-2-----2---|
D|-0---0-0-----0---|
A|-----------------|
E|-----------------|
   p   m p     m

  F#m               G                 A/C#   A          D
e|-----2-2---------|-----3-------3---|-----0-------0---|-----2-------2---|
B|-----2-2---------|-----3-------3---|-----2-------2---|-3---3-3-----3---|
G|-----2-2---------|-----4-------4---|-2---2-2-----2---|-2---2-2-----2---|
D|-4---4-4---------|-5---5-5-----5---|-2---2-2-----2---|-0---0-0-----0---|
A|-4---4-4---------|-5---5-5-----5---|-4---4-0-----0---|-----------------|
E|-2---2-2---------|-3---3-3-----3---|-----------------|-----------------|
   p   m m           p   m p     m     p   m p     m     p   m p     m
Si tú no estás aquí no sé que diablos hago amándote

  F#m               G                 A/C#   A          D
e|-----2-------2---|-----3-------3---|-----0-------0---|-----2-------2---|
B|-----2-------2---|-----3-------3---|-----2-------2---|-3---3-3-----3---|
G|-----2-------2---|-----4-------4---|-2---2-2-----2---|-2---2-2-----2---|
D|-4---4-4-----4---|-5---5-5-----5---|-2---2-2-----2---|-0---0-0-----0---|
A|-4---4-4-----4---|-5---5-5-----5---|-4---4-0-----0---|-----------------|
E|-2---2-2-----2---|-3---3-3-----3---|-----------------|-----------------|
   p   m p     m     p   m p     m     p   m p     m     p   m p     m
Si tú no estás aquí sabrás que Dios no va a entender por qué te vas

  F#m               G                 A/C#   A          D
e|-----2-------2---|-----3-------3---|-----0-------0---|-----2-------2---|
B|-----2-------2---|-----3-------3---|-----2-------2---|-3---3-3-----3---|
G|-----2-------2---|-----4-------4---|-2---2-2-----2---|-2---2-2-----2---|
D|-4---4-4-----4---|-5---5-5-----5---|-2---2-2-----2---|-0---0-0-----0---|
A|-4---4-4-----4---|-5---5-5-----5---|-4---4-0-----0---|-----------------|
E|-2---2-2-----2---|-3---3-3-----3---|-----------------|-----------------|
   p   m p     m     p   m p     m     p   m p     m     p   m p     m
Si tú no estás aquí no sé que diablos hago amándote

  F#m               G                 A
e|-----2-------2---|-----------3-----|-0---------------|-----------------|
B|-----2-------2---|-------3-----3---|-2---------------|-----------------|
G|-----2-------2---|-----4---4-----4-|-2---------------|-----------------|
D|-4---4-4-----4---|---5-------------|-2---------------|-----------------|
A|-4---4-4-----4---|-----------------|-0---------------|-----------------|
E|-2---2-2-----2---|-3---------------|-----------------|-----------------|
   p   m p     m
Si tú no estás aquí sabrás que Dios no va a entender por qué te vas

  Bm       G        D
e|-----------------|-----------------|
B|-----2-3-------3-|-----3-3---------|
G|-------------4---|---2-------------|
D|---4-------------|-0---------------|
A|-2---------5-----|-----------------|
E|---------3-------|-----------------|
Si tú no estás aquí...
Envía el tono de "Si tu no estas aquí" a tu celular/móvil
Este fichero es trabajo propio de su transcriptor y representa su interpretación personal de la canción. El material contenido en esta página es
para exclusivo uso privado, por lo que se prohibe su reproducción o retransmisión, así como su uso para fines comerciales.
© LaCuerda.net · Aviso Legal · Privacidad