Tablatura para Guitarra de la Rondalla de Saltillo: Morir de amor
Conexión · Inscripción
Letras y Acordes
Pantalla Completa
Imprimir
Versión Texto
Añadir Favorito
Otras Versiones

Mostrar Diagramas
Desfile Automático
Manipular Acordes
Formato del Texto

la Rondalla de Saltillo
Morir de amor(TAB)
calidad:
rsal0382
AUTOR: la Rondalla de Saltillo  corregir
ALBUM: desconocido
Enviado por Alex
He aquí una bonita canción que interpreta la rondalla de Saltillo;
originalmente medio tono mas alta que cómo aquí la presento;
pero en fin esta es la tonalidad  mas funcional.

* Digo esto por que algunos colaboradores han colocado los arreglos
para para G#m y no para Gm como lo dicen sus acordes.


Gtr I - Requinto (Guitarra con capo en el quinto traste)   (A D G C E A)
Gtr II - Guitarra al aire (para el trémolo)                (E A D G B E)

Arreglos
                                    Gm
Gtr I  |-------------|----------5--|--3-------1--|--1----------|
       |----------0--|-1--3--5-----|-------------|-------------|
       |----2--2-----|-------------|-------------|-------------|
       |-------------|-------------|-------------|-------------|
       |-------------|-------------|-------------|-------------|
       |-------------|-------------|-------------|-------------|

Gtr II |-------------|-------------|^10^^^^^^^^^^|^^^^^^^13^^^^|
       |-------------|-------------|-------------|-------------|
       |-------------|-------------|-------------|-------------|
       |-------------|-------------|-------------|-------------|
       |-------------|-------------|-------------|-------------|
       |-------------|-------------|-------------|-------------|


  C7                            F
|--------------|-----------3--|-1-------0--|-0----------|
|--------------|--0--1--3-----|------------|------------|
|-----0--0--2--|--------------|------------|------------|
|--------------|--------------|------------|------------|
|--------------|--------------|------------|------------|
|--------------|--------------|------------|------------|

|^12^^^^^^^^^^^|^^^^^^^^^^^^^^|^8^^^^^^^^^^|^^^^^^12^^^^|
|--------------|--------------|------------|------------|
|--------------|--------------|------------|------------|
|--------------|--------------|------------|------------|
|--------------|--------------|------------|------------|
|--------------|--------------|------------|------------|



  Dm                            Gm
|--------------|-----------0--|------------|------------|
|--------------|-----0--1-----|-3----------|------------|
|-----------0--|--2-----------|------------|------------|
|-----3--3-----|--------------|------------|------------|
|--------------|--------------|------------|------------|
|--------------|--------------|------------|------------|

|^10^^^^^^^^^^^|^^^^^^^^^^^^^^|^6^^^^^^^^^^|^^^^^^10^^^^|
|--------------|--------------|------------|------------|
|--------------|--------------|------------|------------|
|--------------|--------------|------------|------------|
|--------------|--------------|------------|------------|
|--------------|--------------|------------|------------|


  A7                        Dm
|------------|------------|-----------|-------|
|---------3--|-5-------3--|--5--------|-------|
|------------|------------|-----------|-------|
|------------|------------|-----------|-------|
|------------|------------|-----------|-------|
|------------|------------|-----------|-------|

|^9^^^^^^^^^^|^^^^^^^^^^^^|^10^^^^^^^^|^^^^^^^|
|------------|------------|-----------|-------|
|------------|------------|-----------|-------|
|------------|------------|-----------|-------|
|------------|------------|-----------|-------|
|------------|------------|-----------|-------|


Acordes

( Gm  C7  F  Dm  Gm  A7  Dm )


                    Gm  C7
Busco frenar a mi camino
                       F    Dm
y me resisto a mi destino
                         Gm   A7
que encontrara un solo final
           Dm
morir de amor


                          Gm    C7
Aunque me juzguen por quererte
                           F    Bb
yo se que en ti estará mi muerte
                     Gm   A7
que mi destino me marco
           Dm   D7
morir de amor


           Gm   C7
Morir de amor...
                       F            Dm
que sin pensar en las noches llore
        D7         Gm              A7
amargo llanto que jamás controle
                 Dm
mi destino eres tu,
                A7   Dm
mi condena es amar.


                        Gm     C7
Lejos de ti busco encontrarte
                     F     Dm
cerca de mi debo alejarte
                       Gm   A7
y sin tu amor he de morir
             Dm  D7
morir de amor.



Gm  C7  F  Dm  Gm  A7  Dm  D7  (RECITANDO)

A veces siento que se me escapan las fuerzas
y el aliento y la vida, y en la vida te me vas tu
aunque naces conmigo a cada instante
y vuelvo a morir de ti.


           Gm     C7
Morir de amor,
                     F                Dm
ya no me queda otra cosa que inventar
                  Gm              A7
que otra cosa no pueda encontrar
             Dm
solamente aceptar
               A7   Dm
recibir el final.


                       Gm   C7
Mi primavera se hace otoño
                      F    Dm
se marchito con tu cariño
                    Gm    A7
que mi destino me marco
           Dm   D7
morir de amor,
           Gm   A7
morir de amor,
           Dm
morir de amor...


***************************************************************

Dedicada con todo mi amor a la chica de la prepa
la dueña de eso ojos encantadores que me
embrujaron desde el primer dia en que los vi

***************************************************************
Envía el tono de "Morir de amor" a tu celular/móvil
Este fichero es trabajo propio de su transcriptor y representa su interpretación personal de la canción. El material contenido en esta página es
para exclusivo uso privado, por lo que se prohibe su reproducción o retransmisión, así como su uso para fines comerciales.
© LaCuerda.net · Aviso Legal · Privacidad