Tablatura para Guitarra de la Rondalla de Saltillo: Dejaré una flor
Conexión · Inscripción
Letras y Acordes
Pantalla Completa
Imprimir
Versión Texto
Añadir Favorito
Otras Versiones

Mostrar Diagramas
Desfile Automático
Manipular Acordes
Formato del Texto


la Rondalla de Saltillo
Dejaré una flor(TAB)
calidad:
rsal1451
AUTOR: la Rondalla de Saltillo  corregir
ALBUM: desconocido
Enviado por Eduardo
*************************************************************************************
* HOLA A TODOS:                                                                     *
*                                                                                   *
* ESTA CANCIÓN ES MUY BELLA, NO SE SI YA ESTABA, PERO DE TODOS MODOS AQUÍ ESTÁ,     *
* YA SABEN, CON TODO LO QUE SE PUEDA SACAR DE PROVECHO DE ELLA, ASÍ QUE OJALÁ       *
* LES AGRADE PORQUE A MÍ ME GUSTA MUCHO. OTRA COSA MÁS, ESTA ROLA TIENE UN INTRO    *
* DIFERENTE CON 'LA RONDALLA DEL AMOR DE SALTILLO', ASÍ QUE EL INTRO Y RIFFS QUE    *
* A CONTINUACIÓN TIENEN, OBVIAMENTE NO SON DE ESA RONDALLA, PERO CON TODO Y TODO    *
* TAMBIÉN SE ESCUCHA MUY BIEN CON LOS ADORNOS DE 'LA RONDALLA DE SALTILLO' ASÍ QUE, *
* YA SIN INTERRUMPIR MÁS CON ESTE TEXTO, VAYAMOS A LOS ADORNOS:                     *
*************************************************************************************


INTRO y ACOMPAÑAMIENTO:

6|----------------------------------------------------------------------------------------------------------|
5|----------------------------------------------------------------------------------------------------------|
4|----------------------------------------------------------------------------------------------------------|
3|----------------------------------------------------------------------------------------------------------|
2|------------------------5--4--5--------------------------------3--2--3--------------5----3--3/5--5----3---|
1|-2--3--5--5/7--5--3--2-----------2--2/3---0--2--3--5--3--2--0-----------0--0/2----2-----------------2-----|

*Obviamente esta es la Introducción de la canción.
-------------------------------------------------------------------------------------------------------------


RIFF1 y ACOMPAÑAMIENTO:

6|------------------------------------|
5|------------------------------------|
4|------------------------------------|
3|------------------------------------|
2|--3---5---3---2---3---5---12---10---|
1|--2---3---2---0---2---3---10----9---|

*Este se toca al final de ciertos párrafos.
-------------------------------------------------------------------------------------------------------------


RIFF2 y ACOMPAÑAMIENTO:

6|---------------------------------------------------------------------------------------------------------->
5|---------------------------------------------------------------------------------------------------------->
4|---------------------------------------------------------------------------------------------------------->
3|---------------------------------------------------------------------------------------------------------->
2|------------------------5--4--5--------------------------------3--2--3--------------5----3--3/5--5----3--->
1|-2--3--5--5/7--5--3--2-----------2--2/3---0--2--3--5--3--2--0-----------0--0/2----2-----------------2----->

                                                 
6|------------------------------------|
5|------------------------------------|
4|------------------------------------|                 /*  ->   : significa que continúa abajo... */
3|------------------------------------|
2|--3---5---3---2---3---5---12---10---|
1|--2---3---2---0---2---3---10----9---|


*Si ya se dieron cuenta, el RIFF2 es el (INTRO + RIFF1), es decir, la parte del poema del canción
 se compone por el INTRO e inmediatamente después el RIFF1. Así que no tendrán problemas aquí, ya que
 no es nada nuevo.
..........................................................................................................



**Ahora sí, vamos con la canción:**



INTRO y ACOMPAÑAMIENTO


Dejaré una flor
por donde un día
sé que tienes que pasar
y su perfume
sé que tienes que aspirar
y ahí estará mi flor


RE
Dejaré una flor en tu balcón donte te sueles asomar al cielo azul y las estrellas contemplar
RE RIFF1 y ACOMPAÑAMIENTO
y ahí estará mi flor Eeesa flor ha de decirte que te quieeeero ha de decir que soy sinceeeeeeerooo
LA7 RE RIFF1 y ACOMPAÑAMIENTO
si tu la quieres deshojar Tóóómala entre tus manos vida míííííía y asi verás con alegrííííííaaaaa que nunca te podré olvidar Dejaré una flor RIFF2 y ACOMPAÑAMIENTO 'Déjare una flor en todas partes... Porque esa flor es el amor que siento por tí... Porque representa la ilusión que en mi alma se anida... Porque esa flor... soy yo... para tí...' Eeesa flor ha de decirte que te quieeeero ha de decir que soy sinceeeeeeerooo
LA7 RE RIFF1 y ACOMPAÑAMIENTO
si tu la quieres deshojar Tóóómala entre tus manos vida míííííía y asi verás con alegrííííííaaaaa que nunca te podré olvidar Dejaré una floooor... .......................................................................................... Bueno, espero les haya gustado, la verdad a veces es incómodo que una palabra de la canción la pongan con muchas vocales (P. Ejem: flooor...);Pero bueno, En mi caso, lo hago porque a veces en esas partes es donde están los cambios de notas, y la verdad creo que en ciertas ocasiones es importante indicarlas. Cualquier sugerencia o comentario, arriba, en la esquina derecha está mi correo. Cuidense y espero seguir mandando más canciones tan hermosas como ésta. Dedicada a: Todas ustedes lindas niñas, mis queridas musas, cuando lean esto. Dedicada También a: la 'Rondalla Voces' de Tapachula, Chiapas.
Este fichero es trabajo propio de su transcriptor y representa su interpretación personal de la canción. El material contenido en esta página es
para exclusivo uso privado, por lo que se prohibe su reproducción o retransmisión, así como su uso para fines comerciales.

© LaCuerda.net · Aviso Legal · Privacidad