Letra y Acordes de la Rondalla de Saltillo: Corazón De Roca
Conexión · Inscripción
Letras y Acordes
Pantalla Completa
Imprimir
Versión Texto
Añadir Favorito
Otras Versiones

Mostrar Diagramas
Desfile Automático
Manipular Acordes
Formato del Texto


la Rondalla de Saltillo
Corazón De Roca
calidad:
rsal0184
AUTOR: Gabriel Luna Fuenta
ALBUM: Nuestras Mejores Canciones: 17... (??)
Enviado por ALFONSO
AQUI VA EL POEMA QUE SE ACOMPAÑA CON LOS ACORDES
Y REQINTO SIGUIETE:

CORAZON DE ROCA YO TRANSFORMARE TU DUREZA EN EL TIERNO ROMANCE

QUE UNIRA NUESTRAS VIDAS POR LA ROMANTICA BLANCURA DE TUS BESOS

AQUI VA EL REQUINTO CON LOS ACORDES QUE LO ACOMPAÑAN

e--0-2-3-5-3-2-0-3-5-3-2-0-5/
B-3-------------------------/
G---------------------------/ ESTO SE REPITE DOS VECES
D---------------------------/
A---------------------------/
E---------------------------/

INTRO 2 VECES




Como saber comprender tu querer
Como lograr que te fijes en mi
Si ni siquiera has querido mirarme
Tampoco escucharme mujer caprichosa

Es porque te hicieron de piedra o de roca
ese corazon

Aunque de hielo sea tu corazon
Yo te dedico esta humilde cancion
Aunque parece que tu no la escuchas
Yo se bien que finjes por ser orgullosa

Es porque te hicieron de piedra o de roca
Ese corazon

Yo se... que es imposible que me quieras a mi
Mi amor... no llegaras a comprender
Y sin embargo te llevo en mi ser
Como una loca y sentida obsesion

Porque te hicieron de roca y no puedes
Tener corazon


ESTE ES EL REQUINTO UTILIZADO


e--0-2-3-5-3-2-0-3-5-3-2-0-5---7-5-7---7-6-5--7-/
B-3----------------------------------7----------/
G-----------------------------------------------/
D-----------------------------------------------/
A-----------------------------------------------/
E-----------------------------------------------/


Yo se... que es imposible que me quieras a mi
Mi amor... no llegaras a comprender
Y sin embargo te llevo en mi ser
Como una loca y sentida obsesion

Porque te hicieron de roca y no puedes
Tener corazon

Alguna cosa conectate con:poncomeza2@hotmail.com
Este fichero es trabajo propio de su transcriptor y representa su interpretación personal de la canción. El material contenido en esta página es
para exclusivo uso privado, por lo que se prohibe su reproducción o retransmisión, así como su uso para fines comerciales.

© LaCuerda.net · Aviso Legal · Privacidad