Tablatura para Guitarra de Romeo Santos: Propuesta Indecente
Conexión · Inscripción
Letras y Acordes
Pantalla Completa
Imprimir
Versión Texto
Añadir Favorito
Otras Versiones

Mostrar Diagramas
Desfile Automático
Manipular Acordes
Formato del Texto

Romeo Santos
Propuesta Indecente(TAB)
calidad:
rsnt0133
AUTOR: Romeo Santos
ALBUM: Formula.vol 2 (2013)
Enviado por Juan
Intro

  Bm  F#  Bm  B7   Em  F# Em  G F#




Que bien te ves, me adelanto no me importa quien sea el
(x4)
E------------------------
B------------------------
G--4/6-6/7---------------
D------------------------
A------------------------
E------------------------

E--------------------------------------
B--------------------------7~----------
G--6/7-7/9--6/7-7/9---6/7--7~----------
D--------------------------------------
A--------------------------------------
E--------------------------------------

Digame usted,       si ha hecho algo travieso alguna vez

E------------------------------------------------------
B-------------2-2h3-3--------------3/5-5----3/5---------
G-----------4--------------------4----------4/6---------
D---------4--------------------4-----------------------
A-------2--------------------2-------------------------
E------------------------------------------------------

s

E-----------------------------------
B----2-3-2-2h3p2--------------------
G--2-------------4-2h4p2------------
D-----------------------------------
A-----------------------------------
E-----------------------------------

   Una aventura es mas divertida si huele si huele a peligro
Semi PM[-------------------]
E---------------------------------------------------
B-------3-5-3--5-7-5--3-5-3-5/7-7-7-----------------
G---------------------------------------------------
D---------------------------------------------------
A---------------------------------------------------
E---------------------------------------------------

  PM[--------------------------]
E---------------------------------------------------
B---------------------------------------------------
G----7-7----6-6----4-4---2-2--------------------------
D---9-9----7-7----5-5---4-4---2-----------------------
A---------------------------------------------------
E---------------------------------------------------


Y si te invito una copa y me acerco a tu boca,

  (con delay palm muted)

E---3---3---3-5-3-5-3--3---3-5-3-5------------------
B-----3---3-----------3--3--------------------------
G---------------------------------------------------
D---------------------------------------------------
A---------------------------------------------------
E---------------------------------------------------

Si te robo un besito, Ay te enojas conmigo?   (Que di...

  (con delay palm muted)
E---5---5---5-9-5-9-----------------7-9-10-9-7------
B-----5---5----------------------7---7-7--7-7-------
G---------------------------------------------------
D---------------------------------------------------
A---------------------------------------------------
E---------------------------------------------------


Que derias si esta noche, te seduzco en mi coche

(Con delay y palm muted)

E---3---3------3-5-3-5-3--3--------3-5-3-5----------
B-----3---3-------------3--3------------------------
G---------------------------------------------------
D---------------------------------------------------
A---------------------------------------------------
E---------------------------------------------------

Que se empañen los vidrios, y arregles que goces


  (con delay palm muted)
E---5---5------5-7-5-7--------------7-9-10-9-7------
B-----5---5----------------------7------------------
G---------------------------------------------------
D---------------------------------------------------
A---------------------------------------------------
E---------------------------------------------------

Si te falto el respeto y luego culpo el alcohol


     palm muted
E---------------------------------------------------
B------5-3-5-3--3---3--------5-3-5-3---3----3-------
G-----------------4-----------------------4---------
D---------------------------------------------------
A---------------------------------------------------
E---------------------------------------------------

Si levanto tu falda, me darias el derecho

    PM[--------------------------]
E---------------------------------------------------
B-----7-5-7-5-------------------5-------------------
G-----------------------------------6/7-------------
D---------------------------------------------------
A---------------------------------------------------
E---------------------------------------------------

A medir tu sensatez


E---------------------------------------------------
B---------------------------------------------------
G--------------------6/7-6/7------------------------
D---------------------------------------------------
A---------------------------------------------------
E---------------------------------------------------

Poner en juego tu cuerpo

E------------------------------------------------------
B------------------------------------------------------
G----------------------------7/9-7/9-------------------
D------------------------------------------------------
A------------------------------------------------------
E------------------------------------------------------

Su te parece prudente,

E------------------------6/7-6/7--------------------
B------------------------7/8-7/8--------------------
G---------------------------------------------------
D---------------------------------------------------
A---------------------------------------------------
E---------------------------------------------------

Esta propuesta indencente

E------------------------10/12-10/12--------------------
B------------------------12/14-12/14--------------------
G---------------------------------------------------
D---------------------------------------------------
A---------------------------------------------------
E---------------------------------------------------

A ver a ver,         permiteme apreciar tu desnudez

E---------------------------------------------------
B--------------2-2h3-3----------3-3/5-----------------------
G------------4----------------4---------------------
D----------4----------------4-------------------------
A--------2----------------2---------------------------
E--------------------------------------------------

E---------------------------------------------------
B-----5p3h5-3p2h3p2--6p4h6--------------------------
G---------------------------------------------------
D---------------------------------------------------
A---------------------------------------------------
E---------------------------------------------------

Relajate,            este martini calmara tu timidez

E---------------------------------------------------
B--------------5-5/7-7----------7/8-8---------------
G------------4----------------7---------------------
D----------4----------------9-----------------------
A--------2----------------9-------------------------
E---------------------------------------------------


E---------------------------------------------------
B-------12p10h12--10p8h10--7h8p7--------------------
G---------------------------------------------------
D---------------------------------------------------
A---------------------------------------------------
E---------------------------------------------------


Una aventura es mas divertida su huele a peligro


E------------------14-12-14-12-14-12-14-12-14----12--------
B------------------------------------------------14--------
G------------------------------------------------14--------
D----------------------------------------------------------
A----------------------------------------------------------
E----------------------------------------------------------

Estribillo

Solo

E---------------------------------------------------
B----------2h3---------2h3p2------------------------
G------2h4---------2h4-------2----------------------
D--2h4---------2h4----------------------------------
A---------------------------------------------------
E---------------------------------------------------

E---------------------------------------------------
B----------2h3---------2h3p2h3p2--------------------
G------2h4---------2h4-----------2------------------
D--2h4---------2h4----------------------------------
A---------------------------------------------------
E---------------------------------------------------

                                        (x2)
E-----------5h7----------5h7p5------|--7p5h7p5-------------
B-------5h7----------5h7-------7p5--|----------------
G---4h6----------4h6----------------|----------------
D-----------------------------------|----------------
A-----------------------------------|----------------
E-----------------------------------|----------------

E---------------------------------------------------
B-----777777--7p5h-7p5----7p5-7p5-------------------
G----------------------7----------7-----------------
D---------------------------------------------------
A---------------------------------------------------
E---------------------------------------------------

         (x4)
E---------------------------------------------------
B----7p5-7p5-7p5-7p5----7p5-7p5---------------------
G--------------------7----------7-------------------
D---------------------------------------------------
A---------------------------------------------------
E---------------------------------------------------

  PM[-----]
E---------------------------------------------------
B--------8---8p7-8p7----8p7h8p7---------------------
G------9-------------9----------9-------------------
D----9----------------------------------------------
A---------------------------------------------------
E---------------------------------------------------


E---------------------------------------------------
B------7-8p7-8p7---8p7h8p7--------------------------
G----6-----------9---------9------------------------
D--7------------------------------------------------
A---------------------------------------------------
E---------------------------------------------------

      PM[------------------------]
E-------------------------------------------1212h14p12--------
B---/10-----10------8-----7----5---55h7p5---------------------
G---/11---11--11---9-9---7-7--6-5-----------------------------
D-------------------------------------------------------------
A-------------------------------------------------------------
E-------------------------------------------------------------

   Bm        F#        Em
E--2---------2---------0---------------------------------------
B--3---3-----2---------0----------3p2h3p2h3p2------------------
G--4-----4---3----3----0------------------------6p4h6p4h6p4----
D--4-------4-4------4--2--------------------------------------
A--2---------4--4------2--------------------------------------
E--2---------2---------0---------------------------------------

And now you and I, (you and I) me and you (me and you)

E---------------------------------------------------
B-----2-3-2-3-5---2-3-5-3-2---2---------------------
G---4-----------------------4-----------------------
D---------------------------------------------------
A---------------------------------------------------
E---------------------------------------------------

Bailamos bachata             (Y luego....
                   (x2)
E---------------------------------------------------
B------------------5/7-5-3-5-32--------------------
G---------------------------------------------------
D---------------------------------------------------
A---------------------------------------------------
E---------------------------------------------------

Y luego you and I, me and you I

E---------------------------------------------------
B---------------------2-3-5-3-2-3--------------------
G-------------------4-------------------------------
D---------------------------------------------------
A---------------------------------------------------
E---------------------------------------------------

Terminamos en la cama
                     (2x)
E---------------------------------------------------
B------------------5/7-5-3-5-3-2--------------------
G---------------------------------------------------
D---------------------------------------------------
A---------------------------------------------------
E---------------------------------------------------

And now you and I, (you and I) me and you (me and you)

E---------------------------------------------------
B-----2-3-2-3-5---2-3-5-3-2---2----------------------
G---4-----------------------4-----------------------
D---------------------------------------------------
A---------------------------------------------------
E---------------------------------------------------


Bailamos bachata             (Y luego....
                   (x2)
E---------------------------------------------------
B------------------5/7-5-3-5-32--------------------
G---------------------------------------------------
D---------------------------------------------------
A---------------------------------------------------
E---------------------------------------------------

Y luego you and I, me and you I

E---------------------------------------------------
B---------------------2-3-5-3-2-3--------------------
G-------------------4-------------------------------
D---------------------------------------------------
A---------------------------------------------------
E---------------------------------------------------

Terminamos en la cama
                     (2x)
E---------------------------------------------------
B------------------5/7-5-3-5-32--------------------
G---------------------------------------------------
D---------------------------------------------------
A---------------------------------------------------
E---------------------------------------------------

 3x (No lleva arreglo la guitarra,
pero se puede copiar el sonido de acordeon pero me da fiaca pasarlo)

And now you and I,( you and I),
Me and you, (me and you)


                                                      T
E---/7-9-10-9-10/12--10-9--7h9p7/5------------------  |
B---------------------------------------------------  |
G---------------------------------------------------  |
D---------------------------------------------------  |
A---------------------------------------------------  |
E---------------------------------------------------  | (X2)
                                                      |
E---/7-9-10-9--10-12/17-15-14-12h14p1210------------  |
B---------------------------------------------------  |
G---------------------------------------------------  |
D---------------------------------------------------  |
A---------------------------------------------------  |
E---------------------------------------------------  |
                                                      T
Envía el tono de "Propuesta Indecente" a tu celular/móvil
Este fichero es trabajo propio de su transcriptor y representa su interpretación personal de la canción. El material contenido en esta página es
para exclusivo uso privado, por lo que se prohibe su reproducción o retransmisión, así como su uso para fines comerciales.
© LaCuerda.net · Aviso Legal · Privacidad