Tablatura para Bajo de Roberto Blades: Lágrimas
Conexión · Inscripción
Letras y Acordes
Pantalla Completa
Imprimir
Versión Texto
Añadir Favorito
Otras Versiones

Mostrar Diagramas
Desfile Automático
Formato del Texto

Roberto Blades
Lágrimas(BAJ)
calidad:
rbld0022
AUTOR: Roberto Blades  corregir
ALBUM: desconocido
Enviado por Gerardo
Una canción del menor de los Blades, para todos
los llorones y lloronas del mundo.

Intro:

G -------7----9-------------9-------------9----|
D ----7-----7---7-------9-7----7------9-7---7--|
A -5---------------7-10----------7-10----------|
E ---------------------------------------------|

G -------7-------------|
D ----7-------5-6-7----|
A -5-------7-----------|
E ---------------------|

G -------7----9-------------9-------------9----|
D ----7-----7---7-------9-7----7------9-7---7--|
A -5---------------7-10----------7-10----------|
E ---------------------------------------------|

G --------7---|
D -----7------|
A --5---------| (4 veces)
E ------------|

Canción:

"Lágrimas brotan de mis ojos, al ver tu carta de despedida..."

G -------7----9-------------9-------------9----|
D ----7-----7---7-------9-7----7------9-7---7--|
A -5---------------7-10----------7-10----------|
E ---------------------------------------------|

G --------7-------7---|
D -----7-------7------|
A --5-------5---------|
E --------------------|

"Hasta ese día no comprendo, por que me dijiste tantas mentiras"
(Se tocan los mismos arreglos de arriba)

"Después de haberte dado tantas rosas. Después de haberte dado
toda mi vida"...

G -------7-------7-----7-----6-6----6-6----6------------|
D ----7-------7-----5-------------4------4---4--3-3--2--|
A -5-------5--------------4-----------------------------|
E ------------------------------------------------------|

G -4---2---2-------7-------7---------|
D ---2---2------7-------7-----7-5----|
A -----------5-------5---------------|
E -----------------------------------|

"Mi recompensa ha sido tu desengaño, con el cual me
has hecho mucho daño":

G ----7----6-6----6------------4----2---2---------------|
D -5------------4-------4-3-2-----2---2-----7-7----7-7--|
A ------4------------4--------------------5------5------|
E ------------------------------------------------------|

Cumbia rhythm (2 veces)


G ---------9-9----------9-9---------------------------7--|
D ----7-7----------9-7-------7-5-7----5-7-7------7-7-----|
A -5------------7------------------5---------7-5---------|
E -------------------------------------------------------|

Volver a tocar la canción con los mismos arreglos
(se hacen pequeños cambios en la estrofa "A mi corazón
todavía le pregunto, si te quiere después de haberlo
abamdonado"; pero se deja al libre albedrío de ustedes).

Después, se toca:

G ----------|
D ----------|
A --5-5-5---|
E ----------|

Entrada al coro:

G -6------6-7--------------------|
D ---6-4-------7-7-----6--4---4--|
A -----------------5-4------4----|
E -------------------------------|

G ----4-4-4--|
D -----------|
A -2---------|(Este riff se toca 4 veces)
E -----------|

G ----4-4----|
D -2---------|
A -----------| (Se toca después de la 4ta vez)
E -----------|

Coro/Montuno (Varias veces)

"Después de tanto amor, tu te vas y me abandonas.
Ya no puedo seguir así. ¡¡¡Buscaré a otra!!!"

G --------------------------|
D ---6-7-----------6--4-----|
A -5-------6-6--4-------4-4-|
E --------------------------|

"Buscaré a otra... a otra... a otra... a otra..."

G -------------|
D ----9--9--9--|
A -------------| (4 veces)
E -7-----------|

"A OTRA..."

G -------9----9--|
D ----9-----9----|
A -7-------------|
E ---------------|

Solo de metales

G ----9-9-9---|
D ------------|
A -7----------| (Varias veces)
E ------------|

Final del solo:

G -------------------------|
D -7---7-7---7---7-7---7---|
A ---7-----7---7-----7-----|
E -------------------------|

G -----9-9-9--|
D -7----------|
A ---7--------| (3 veces)
E ------------|

G -7-7-7---11---9-9-9---7-7-7-7---9---|
D -7-7-7---11---9-9-9---7-7-7-7---9---|
A ------------------------------------|
E ------------------------------------|


Coro (Se tocan los mismos arreglos)

Post-Coro:

G --7-7---|
D ------6-|
A --------|
E --------|

(Todo esto se repite 3 veces):

G -------------|
D -----6-6-6---|
A --4----------| (2 veces)
E -------------|

G -----6--6--6--|
D --4-----------|
A --------------| (2 veces)
E --------------|

G ---4--4--4--|
D -2----------|
A ------------| (2 veces)
E ------------|

G -2---2---2------0----|
D ---2---2---2--0---0--|
A ---------------------|
E ---------------------|

Luego se vuelve a tocar el coro hasta llegar a esta parte,
la parte final:

G --------9-9--------9------|
D ---6-7----------9----7-7--|
A -5-----------7------------|
E --------------------------|

Esta es toda la canción. Tiene sus detalles, pero
está bien completa. Ojalá la disfruten. Dedicada a todos
los llorones y lloronas del mundo. Hay
que seguir adelante. La vida continua. Cuídense.
Dios me los guarde y ¡¡¡Hasta la próxima!!!
Envía el tono de "Lágrimas" a tu celular/móvil
Este fichero es trabajo propio de su transcriptor y representa su interpretación personal de la canción. El material contenido en esta página es
para exclusivo uso privado, por lo que se prohibe su reproducción o retransmisión, así como su uso para fines comerciales.
© LaCuerda.net · Aviso Legal · Privacidad