Tablatura para Guitarra de Río Roma: Quisiera ser idiota
Conexión · Inscripción
Letras y Acordes
Pantalla Completa
Imprimir
Versión Texto
Añadir Favorito
Otras Versiones

Mostrar Diagramas
Desfile Automático
Manipular Acordes
Formato del Texto

Río Roma
Quisiera ser idiota(TAB)
calidad:
rrmx0131
AUTOR: Río Roma  corregir
ALBUM: desconocido (2011)
Enviado por gerardo
bueno pues les pondre tambien el requinto del intro y el arepegio
para los versos espero les guste.

                Dm                   Gm    A
----------10-12-13-12-12-10-10-8--8-/6--6--8-6-5---
-10-10-10-------15-13-13-11-11-10-10/8-8-----------
---------------------------------------------------
---------------------------------------------------
---------------------------------------------------
---------------------------------------------------
        A7
------------------------
------------------------
--6-7/9-9---------------
-7--7---11--------------
------------------------
------------------------


   Dm
-------1----
-----3------
---2--------
-0----------
------------
------------

  Gm
------------
-------3----
-----3------
---5--------
-5----------
------------

   C
------------
-------1----
-----0------
---2--------
-3----------
------------

   F
------------
--------1---
------2-----
----3-------
------------
-1----------

Esta parte lleva el arepegio:

Dm   Gm       C               F
Hoy amor hoy voy a dejar de fingir
     Dm       Gm     C                  F
pues no no te menti al que engañe fue a mi


Aqui se empieza con el rasgueo:

      Gm                   C               F
el temor a sufrir me hizo ciego de tu traición
 Gm                 A                A7
cuanto dolor no se como decirte mi amor


               Dm                  Gm
quisiera ser idiota y nunca darme cuenta
                     C                 F
de que me estas mintiendo cada que me besas
               Gm                  C
quisiera ser idiota y qe no me doliera
                    A             A7
saber que ya no quiere nada de mi amor
               Dm                    Gm
quisiera ser idiota y nunca darme cuenta
                 C               F
de que ya no me amas solo me toleras
               Gm                  C
quisiera ser idiota y que no me doliera
                    A
saber que ya no tienes pasion por este amor

13-12-12-10-10-8--8-/6--6--8-6-5-------------------------
15-13-13-11-11-10-10/8-8---------------------------------
---------------------------------6h7-9-10-10/12----------
---------------------------------------------------------
---------------------------------------------------------
---------------------------------------------------------


 Dm   Gm      C                F
Hoy amor hoy voy a empezar a vivir
     Dm        Gm  C                F
pues no, no vivi solo soñe junto a ti
      Gm                    C              F
el temor a sufrir me hizo ciego de tu traicion
 Gm                 A              A7
cuanto dolor no se como decirte mi amor

              Dm                  Gm
quisiera ser idiota y nunca darme cuenta
                     C                 F
de que me estas mintiendo cada que me besas
               Gm                  C
quisiera ser idiota y qe no me doliera
                    A             A7
saber que ya no quiere nada de mi amor

               Dm                    Gm
quisiera ser idiota y nunca darme cuenta
                 C               F
de que ya no me amas solo me toleras
               Gm                  C
quisiera ser idiota y que no me doliera
                    A                    Dm  Gm
saber que ya no tienes pasion por este amor
   C               F
pasion por este amor

Gm - C - A - A7
                Dm                  Gm
quisiera ser idiota y nunca darme cuenta
                 C               F
de que ya no me amas solo me toleras
Gm              C                       A
y que no me doliera saber que ya no tienes

--6---5--3--------1------------
-8---6--5---------3------------
------------------2------------
------------------0------------
------------------0------------
-------------------------------

pasion por este amor
Envía el tono de "Quisiera ser idiota" a tu celular/móvil
Este fichero es trabajo propio de su transcriptor y representa su interpretación personal de la canción. El material contenido en esta página es
para exclusivo uso privado, por lo que se prohibe su reproducción o retransmisión, así como su uso para fines comerciales.
© LaCuerda.net · Aviso Legal · Privacidad