Letra y Acordes de Rigo Tovar: El Sirenito
Conexión · Inscripción
Letras y Acordes
Pantalla Completa
Imprimir
Versión Texto
Añadir Favorito
Otras Versiones

Mostrar Diagramas
Desfile Automático
Manipular Acordes
Formato del Texto

Rigo Tovar
El Sirenito
calidad:
rtov0361
AUTOR: Rigo Tovar  corregir
ALBUM: desconocido
Enviado por zaid
esta es mi primera cancion espero les guste jhajha......
es una cancion muy facil y va algo asi

--------INTRO--------

e-7-7-7-7----------------------------|
B-------------8-8-8-8----------------|
G-------------------------9-9-9-9-7--|
D------------------------------------|
A------------------------------------|
E------------------------------------|

e-8-8-8-8-------------------------------------|
B-------------10-10-10-10---7-7-7-------------|
G-----------------------------------9-7-------|
D---------------------------------------------|
A---------------------------------------------|
E---------------------------------------------|

e--12-12--10------------------|
B--12-12--12------------------|
G-----------------------------|   esto se repite x2
D-----------------------------|
A-----------------------------|
E-----------------------------|


  G                              D
Cuando busiaba por el fondo del oceano
                               G
Me enamore de una bellizima sirena
                                   D
Fuera del mar sin basilar pedi su mano
                                 G
Y nos casamos en las playas de Chaleta
         C
Pasaron mas de nueve meces y sin una
              D
Noveda, pero cerquita de los trece se
                 G
Enfermo de gravedad
    G           D
Tuvimos un sirenito, justo al año de
   G                         D
Casados, con la cara de angelito pero
           G
Cola de pescado.


--------INTRO----------

       G                    D
Una mañana los soldados tiburones me
                             G
Condujeron a la corte de Neptuno

Se me acusaba que en un viernes de
   D
Dolores, a la sirena me comi en el
     G
Desayuno.
         C
Como ninguno me crellera me mandaron
                   D
Fusilar, cuando aparece mi sirena y cuenta
           G
Toda la verdad.
  G             D
Tuvimos un sirenito, justo al año de
  G                          D
Casados, con la cara de angelito pero
           G
Cola de pescado.(X2)

e--12-12--10------------------|
B--12-12--12------------------|
G-----------------------------|   esto se repite x3
D-----------------------------|
A-----------------------------|
E-----------------------------|

y de ahi sigue un solo pero ese lo pueden improvisar es muy facil!!!!

G-D........ estos acordes se hacen durante el solo se repiten asta
que se acabe.

al terminar el solo se hace esto.

e--12-12--10------------------|
B--12-12--12------------------|
G-----------------------------|   esto se repite x
D-----------------------------|
A-----------------------------|
E-----------------------------|

G                    D
Una mañana los soldados tiburones me
                             G
Condujeron a la corte de Neptuno

Se me acusaba que en un viernes de
   D
Dolores, a la sirena me comi en el
     G
Desayuno.
         C
Como ninguno me crellera me mandaron
                   D
Fusilar, cuando aparece mi sirena y cuenta
           G
Toda la verdad.

G             D
Tuvimos un sirenito, justo al año de
  G                          D
Casados, con la cara de angelito pero
           G
Cola de pescado.(X2)

pero cola de pescado.....
pero cola de pescado.....
pero cola de pescado.....
pero cola de pescado.......asta que se acabe jha......XD

bueno espero les guste.........!!!!!!
Envía el tono de "El Sirenito" a tu celular/móvil
Este fichero es trabajo propio de su transcriptor y representa su interpretación personal de la canción. El material contenido en esta página es
para exclusivo uso privado, por lo que se prohibe su reproducción o retransmisión, así como su uso para fines comerciales.
© LaCuerda.net · Aviso Legal · Privacidad