Tablatura para Bajo de Riff: Suzy Cadillac
Conexión · Inscripción
Letras y Acordes
Pantalla Completa
Imprimir
Versión Texto
Añadir Favorito
Otras Versiones

Mostrar Diagramas
Desfile Automático
Formato del Texto

Riff
Suzy Cadillac(BAJ)
calidad:
riff0022
AUTOR: Riff  corregir
ALBUM: desconocido
Enviado por victor
Este tema es bastante facil de tocar en el bajo, no por eso deja de ser
un temazo. Creo que no necesita muchas mas aclaraciones. Pruebenla!

0:06                             “Susy se divierte viajando en Cadillac…”
G|-------------------------------------------------------------------------
D|-------------------------------------------------------------------------
A|-0-0-0-0-0-0-0-0-0-0-0-0-0-0-0-0-0-0-0-0-0-0-0-0-0-0-0-0-0-0-0-0-0-0-0...
E|-------------------------------------------------------------------------
 “Susy…      …Cadillac…   …ella me lleva…  …mente no va…
G|---------------------------------------------------------------------
D|---------------------------------------------------------------------
A|-5-5-5-5---------------------------5-5-5-5---------------------------
E|--------3--3-3-3-35--5-5-5-5-5-5-5--------3--3-3-3-35--5-5-5-5-5-5-5-
0:49“Susy se divierte viajando en Cadillac…”
G|-------------------------------------------------------------------------
D|-------------------------------------------------------------------------
A|-0-0-0-0-0-0-0-0-0-0-0-0-0-0-0-0-0-0-0-0-0-0-0-0-0-0-0-0-0-0-0-0-0-0-0...
E|-------------------------------------------------------------------------
“Susy…      …Cadillac…   …ella me lleva…  …mente no va…
G|---------------------------------------------------------------------
D|---------------------------------------------------------------------
A|-5-5-5-5---------------------------5-5-5-5---------------------------
E|--------3--3-3-3-35--5-5-5-5-5-5-5--------3--3-3-3-35--5-5-5-5-5-5-5-
1:26 (empieza el solo del carpo)
G|----------------------------------------------------------------
D|----------------------------------------------------------------
A|-0-0-0-0-0-0-0-0-0-0-0-0-0-0-0-0-0-0-0-0-0-0-0-0-0-0-0-0-0-0-0-0
E|----------------------------------------------------------------

G|---------------------------------------------------------------------
D|---------------------------------------------------------------------
A|-5-5-5-5---------------------------5-5-5-5---------------------------
E|--------3--3-3-3-35--5-5-5-5-5-5-5--------3--3-3-3-35--5-5-5-5-5-5-5-

G|-------------------------------------------------------------------------
D|-------------------------------------------------------------------------
A|-0-0-0-0-0-0-0-0-0-0-0-0-0-0-0-0-0-0-0-0-0-0-0-0-0-----------------------
E|-------------------------------------------------------------------------
2:36“Se agita con el viento su pelo platinado…”
G|-------------------------------------------------------------------------
D|-------------------------------------------------------------------------
A|-0-0-0-0-0-0-0-0-0-0-0-0-0-0-0-0-0-0-0-0-0-0-0-0-0-0-0-0-0-0-0-0-0-0-0...
E|-------------------------------------------------------------------------
                               (3 veces)
“Susy…      …Cadillac…   …ella me lleva…  …mente no va…
G|---------------------------------------------------------------------|
D|---------------------------------------------------------------------|
A|-5-5-5-5---------------------------5-5-5-5---------------------------|
E|--------3--3-3-3-35--5-5-5-5-5-5-5--------3--3-3-3-35--5-5-5-5-5-5-5-|
3:39
G|------------------------------------------------------------------------|
D|------------------------------------------------------------------------|
A|-0----------0-0-0-0-0-0-0-0-0-0-0---0---------------------0-------------|
E|------------------------------------------------------------------------|

Nota: Cuando pongo 0... es para no poner todas las notas y para que se
entienda que se toca siempre esa cuerda al aire hasta el proximo cambio.

Susy Cadillac (Riff)

Susy se divierte viajando en Cadillac
Tiene mucho dinero y nada en qué gastar
Su máquina devuelve y sale a caminar
Sus manos en los controles y su sensualidad
Susy   Cadillac,
ella me lleva   donde tu mente no va

Susy se divierte viajando en cadillac
y encara la autopista que va a ningún lugar
Algunos le prefieren su vieja enfermedad,
pretende que el asfalto es su única verdad
Susy Cadillac,
ella me lleva donde tu mente no va

Se agita con el viento su pelo platinado,
y sólo la acaricia un nuevo tapizado
Ahora está tranquila mirando a ningún lado,
tan solo quedan marcas de rouge en los cromados
Susy Cadillac,
ella me lleva donde tu mente no va

Mientras su musica se siga tocando y escuchando el carpo jamas morira,
vivira eternamente en la memoria de todos...
e-mail: zarathustra4321@hotmail.com
Envía el tono de "Suzy Cadillac" a tu celular/móvil
Este fichero es trabajo propio de su transcriptor y representa su interpretación personal de la canción. El material contenido en esta página es
para exclusivo uso privado, por lo que se prohibe su reproducción o retransmisión, así como su uso para fines comerciales.
© LaCuerda.net · Aviso Legal · Privacidad