Tablatura para Guitarra de Ricky Martin: Tu Recuerdo
Conexión · Inscripción
Letras y Acordes
Pantalla Completa
Imprimir
Versión Texto
Añadir Favorito
Otras Versiones

Mostrar Diagramas
Desfile Automático
Manipular Acordes
Formato del Texto

Ricky Martin
Tu Recuerdo(TAB)
calidad:
rmar0475
AUTOR: Ricky Martin  corregir
ALBUM: Mtv Unplugged
Enviado por Néstor
Introducción, Solo y Outro “Tu Recuerdo”.
Artista: Ricky Martín
Autor TAB: Néstor Pino
Clave: Cm y Rem#.

Introducción: La Guitarra y la Mandolina se confunden, pero más menos hacen
lo que sigue a continuación.

Mandolina

E---3---4--------------4-------|
B-4---6---8h9p8---8------4-3---|
G---------------8----5------5-4|  (La intro y en los coros)
D------------------------------|
A------------------------------|
E------------------------------|

Guitarra acompañamiento.

E------------------------------|
B-4--6--8----------4-------3---|
G--5--7-----8--------5-------4-|  (Ídem)
D----0----8--8---6-------5-----|
A-3-----6------6-------5-------|
E------------------------------|

Al final de los coros el Riff de la mandolina es básicamente:

E 11-11-11/10-10-10-10/6-6-6-|-11-10-8-|
B 13-13-11/11-11-11-11/8-8-8-|---------|
G ---------------------------|12-10-8--|
D ---------------------------|---------|
A ---------------------------|---------|
E ---------------------------|---------|

La transición de notas en la canción es:

Verso: Cm-REm-RE#-LAb-SOL  (FAm-SOL al final de los versos)
Coros: Cm-Rem-Re#-LaB-Sol
Interludio:FAm-SOL

Luego del solo, la canción sube un tono y medio.

Solo:

E---------------------|-----------------------------|
B---------------------|---11------------------------|
G-------10-12-10-12*--|-10--13-13p12-10-12-10/7-(7)-|
D-10-12---------------|-----------------------------|
A---------------------|-----------------------------|
E---------------------|-----------------------------|


E--15-13-15-13-15-15/11-------/16-15-13-16-13-15*|
B-13-------------------13------------------------|
G--------------------------13--------------------|
D------------------------------------------------|
A------------------------------------------------|
E------------------------------------------------|


E---20*--18*---16*----18p16---18p16--18p16----18p16----15p13
B-18---16----13---------------------------------------------
G-------------------17-----17------17------17-------13------
D-----------------------------------------------------------
A-----------------------------------------------------------
E-----------------------------------------------------------

E----15p13----15p13----11----10---8|---------------------------------|
B----------------------------------|----------9h11h9-----------------|
G-13-------13-------12----10----8--|--10-12-13------13-12-10-13-10-12|
A----------------------------------|---------------------------------|
D----------------------------------|---------------------------------|
E----------------------------------|---------------------------------|

E----------------|
B--------------7-|
G-------7-8-10---|
D--8-10----------|
A----------------|
E----------------|

Outro: (Rem#)



E--------------13-11-10-------11-10-14-11-10-----11---7---------2----|
B-----7---9-12----------12-11---------------12-11---9---6------4-----|
G-8-8---8-------------------------------------------------7---3------|
D------------------------------------------------------------1-------|
A--------------------------------------------------------------------|
E--------------------------------------------------------------------|


Nota 1: Las notas en el solo son: Cm-Rem-Re#-LaB-Sol.
(Bajé mi guitarra medio tono. Suena mejor así)
Nota 2: Luego del solo sube un tono y medio, o sea a Rem#.
Nota 3: Los asteriscos (*) equivalen a fusas en la cuerda respectiva.
Nota 4: La canción tiene varios riffs de la Mandolina,
algunos ininteligibles,así que lo mejor es improvisar.
Envía el tono de "Tu Recuerdo" a tu celular/móvil
Este fichero es trabajo propio de su transcriptor y representa su interpretación personal de la canción. El material contenido en esta página es
para exclusivo uso privado, por lo que se prohibe su reproducción o retransmisión, así como su uso para fines comerciales.
© LaCuerda.net · Aviso Legal · Privacidad