Letra y Acordes de Ricardo Montaner: La canción que necesito
Conexión · Inscripción
Letras y Acordes
Pantalla Completa
Imprimir
Versión Texto
Añadir Favorito
Otras Versiones

Mostrar Diagramas
Desfile Automático
Manipular Acordes
Formato del Texto

Ricardo Montaner
La canción que necesito
calidad:
rmon0961
AUTOR: Ricardo Montaner  corregir
ALBUM: Viajero Frecuente (2012)
Enviado por emmanuel
    C     Dm7    Em7     Fmaj7    C10*    Cmaj7    A7
e|--3---  --5---  --7---  --8----  ------  ---3---  ----5---
B|--5---  --6---  --8---  --10---  --3---  ---5---  ----5---
G|--5---  --5---  --7---  --9----  --4---  ---4---  ----6---
D|--5---  --7---  --9---  --10---  --5---  ---5---  ----5---
A|--3---  --5---  --7---  --8----  --2---  ---3---  ----7---
E|------  ------  ------  -------  ------  -------  --------

  *no me acuerdo como se llama esta nota
   asi que le puse C10


C          Dm7         Em7
 Cuando estas lejos de mi
Fmaj7                Em7
 la canción que necesito
Fmaj7        C10
 suena a historia triste
Cmaj7   A7
 a melancolía
Dm                   Gsus4  G
 y a caricias que no di jamas

   (se repite)
 y cuando estas cerca de mi
 la canción que necesito
 suena a amor bonito
 a pasion sorpresa
 a regalo que aun no abrí

(chorus)
  C      C10     Am   G
 Adonde vas sin mí
   Dm7   C      G
 adonde vas sin mí
   C    C10     Am
 adonde va tu amor
     Em7  Dm
 tu corazón
          G
 y tu promesa
         C
 adonde, va

Si ahora es cierto que te vas
la canción que necesito
me hara ahogar de pena
suena a amor solito
que se muere despacito

Adonde vas sin mí
adonde vas sin mí
adonde va tu amor
tu corazón
y tu promesa

(no habia ningun chord para esta canción
asi que me puse a sacarla. Para arrancar
creo q está bien, la base está. Se aceptan
criticas, sugerencias y modificaciones)

(tambien pueden usar estos acordes mas faciles:

    C    Dm7   Em7  Fmaj7   C10*   Cmaj7  A7
e|--0-----1-----0-----0-------------0------0-----------
B|--1-----1-----3-----1------3------0------2-----------
G|--0-----2-----0-----2------4------0------0-----------
D|--2-----0-----2-----3------5------2------2-----------
A|--3-----0-----2-----0------2------3------0-----------
E|-----------------------------------------------------
Envía el tono de "La canción que necesito" a tu celular/móvil
Este fichero es trabajo propio de su transcriptor y representa su interpretación personal de la canción. El material contenido en esta página es
para exclusivo uso privado, por lo que se prohibe su reproducción o retransmisión, así como su uso para fines comerciales.
© LaCuerda.net · Aviso Legal · Privacidad