Letra y Acordes de Rescate: Soy José
Conexión · Inscripción
Letras y Acordes
Pantalla Completa
Imprimir
Versión Texto
Añadir Favorito
Otras Versiones

Mostrar Diagramas
Desfile Automático
Manipular Acordes
Formato del Texto

Rescate
Soy José
calidad:
resc0531
AUTOR: Ulises Eyherabide
ALBUM: ¡arriba! (2010)
Enviado por Leonardo
Quinto Track del disco "Arriba!"

Suena muchisimo mejor si tocan todo con cejilla.

Intro: Am - Dm - Am - Dm - E

Riff:

e) |---------------------------------|
B) |------------6-5-3-1-0------------|
G) |----2-4-5-2-----------2----------|
D) |--2------------------------------|
A) |---------------------------------|
E) |---------------------------------|

e) |------------3-1-0-1-0------------|
B) |---------------------------------|
G) |----2-4-5-2----------------------|
D) |--2------------------------------|
A) |---------------------------------|
E) |---------------------------------|


1er Verso:
Am     G
Loco el tiempo,
F               E
Loco este tiempo,
Am          G                F        E
Creo haber soñado esto en otro momento
C           G
Hace tanto que paso,
F              E
Imposible de olvidar,
Am           G
En mis ojos pueden ver,
F               E        F
Algo les resulta familiar...

CORO:

Al terminar un Am:
e) |-------12-------|
B) |----13----------|
G) |-14-------------|
Al terminar un Dm:
e) |-------13-------|
B) |----15----------|
G) |-14-------------|

Am          Dm
Hey! Soy Jose!
             Am           Dm - E
Como que ya no me conocen?
Am             Dm
Hey! Si soy Jose!
             Am           Dm - E
Como que ya no me conocen?
                 Am - Dm - Am - Dm - E
Su hermano Jose...

e) |---------------------------------|
B) |------------6-5-3-1-0------------|
G) |----2-4-5-2-----------2----------|
D) |--2------------------------------|
A) |---------------------------------|
E) |---------------------------------|

e) |------------3-1-0-1-0------------|
B) |---------------------------------|
G) |----2-4-5-2----------------------|
D) |--2------------------------------|
A) |---------------------------------|
E) |---------------------------------|

2do Verso:

Am       G
Pasa el tiempo,
F         E
Y no hay culpables,
Am        G           F           E
Aqui somos hermanos en nombre del Padre
C            G
Pero a no dramatizar,
F            E
Esto no es casualidad,
Am           G
Aqui hay una voluntad,
F       E
Sera la divina...

CORO:

Al empezar un Am:
e) |-------12-------|
B) |----13----------|
G) |-14-------------|
Al empezar un Dm:
e) |-------13-------|
B) |----15----------|
G) |-14-------------|

Am          Dm
Hey! Soy Jose!
             Am           Dm - E
Como que ya no me conocen?
Am             Dm
Hey! Si soy Jose!
             Am           Dm - E
Como que ya no me conocen?

///Am - E///
Si soy jose
Yo soy jose

Coro de Voces:

Am - Dm - Am - Dm - E

3er Verso: (misma secuencia que el coro)

Es la cancion de Jose,
Aquel que sus hermanos pudo encontrar otra vez,
Esta cancion es para unir Para sanar
Es para compartir, para redimir,
Para el testigo de tierra extraña
Que va perdiendo fuerza pero no las mañas
(sigue misma secuencia)
Para aquellos que guardan el corazon
Aquellos que no bailan el mismo son
Solo que no se aturden
Solo que no confunden
Solo capaces de tender la mano al que se hunde
Esta cancion es de hermano,
Los que prefieren perdonar y volver a estrechar mano,
La mano junta, como cordon de tres dobleces
Que no se corta, que prebalece
Como es el fruto que no perece
Ese es Jose!
Que te parece?

CORO:

Al empezar un Am:
e) |-------12-------|
B) |----13----------|
G) |-14-------------|
Al empezar un Dm:
e) |-------13-------|
B) |----15----------|
G) |-14-------------|

Am          Dm
Hey! Soy Jose!
             Am           Dm - E
Como que ya no me conocen?
Am             Dm
Hey! Si soy Jose!
             Am           Dm - E
Como que ya no me conocen?

(sigue misma secuancia hasta que termina en Am)

¡Espero les sirva!
Envía el tono de "Soy José" a tu celular/móvil
Este fichero es trabajo propio de su transcriptor y representa su interpretación personal de la canción. El material contenido en esta página es
para exclusivo uso privado, por lo que se prohibe su reproducción o retransmisión, así como su uso para fines comerciales.
© LaCuerda.net · Aviso Legal · Privacidad