Tablatura para Guitarra de la Renga: El viento que todo empuja
Conexión · Inscripción
Letras y Acordes
Pantalla Completa
Imprimir
Versión Texto
Añadir Favorito
Otras Versiones

Mostrar Diagramas
Desfile Automático
Manipular Acordes
Formato del Texto

la Renga
El viento que todo empuja(TAB)
calidad:
reng0242
AUTOR: la Renga  corregir
ALBUM: desconocido
Enviado por Juan
Intro: Pedalera con efecto wha-wha
Riff

E|---------------------------------------------|
B|--------------7----------------------------7-|
G|--------------7--------------7-------------7-|
D|----9-7-------7-----9-7------7----9-7------7-|
A|-7-9-----10-9-5-7-9-----10-9-5-7-9----10-9-5-|
E|---------------------------------------------|

E|--------------------------------|
B|---------------------------7----|
G|---------------9-9---------7----|
D|----9-7--------9-9-9-9-5-5-7----|
A|-7-9----10-9-7-7-7-9-9-5-5-5-...|
E|-------------------7-7-3-3------|


(...): Continua rasgeando el mismo
       acorde hasta el comienzo de la canción
D
  Hoy me detuve en tu mirada que raja el velo del dolor
                                              Em
  y supe que hay algo más que percibiren este mundo
        B         G         D
  que todo lo muele y lo desgarra.
D
  Perdido por perdido ya ves da lo mismo vivo o muerto
                                                    Em
  pero tu alma es otra cosa, tu alma es la que te mueve
           B       G                   D
  tu alma es mi razón, tu alma es la fuerza.
D
  El águila muerte siempre vuelve y afina su aguda vista

  hoy cualquiera puede morir sin saber como fue vivir
                        Em             B
  yo sólo espero sin dormirme en mis sueños
            G                        D7
  estar tan lejos, lejos de esta ignorancia.

Estribillo: Con distorsión

A5                        D5 G5 G#5 A5
  Sólo eso, sólo eso
A5                    C5               D5
  despierta en mí el viento que todo empuja
A5               D5 G5 G#5 A5
  sólo eso, sólo eso
A5                   C5       D5
  que más puedo esperar, sólo eso.

En esta parte el Saxo y la Trompeta hacen:
(Transportado para Guitarra)

E|------------10-----------------------10--------7-8-7--------|
B|-7-8-7-8-10-----7-8-7-8----7-8-7-8-10---7-8-10-------8-7----|
G|-7--------------7-------7--7-----------------------------7--|
D|------------------------------------------------------------|
A|------------------------------------------------------------|
E|------------------------------------------------------------|

Vuelve a tocar con wha-wha

D
  Y mi mirada puede ver por la rejilla de tus ojos
                                               Em          B
  para espiar tu corazón que se quedó con un pedazo de mi vida
                G                  D
  al tiempo que yo, yo brote de tu sangre

(En esta parte el Chizzo no toca ningun acorde)

  Hoy que no hay tiempo que perder
  que todo anda a reloj
  que se destruye sin razón
                           D
  y la vida muere en un discurso
  y alguien se encarga de encerrarte
  y otro prepara el fin del mundo
  y tan lejana queda la esencia
                            Em          B
  que sólo el hecho de encontrarte para mí
           G                        D7
  le da sentido, le da sentido a mi vida.

Estribillo X2: con distorción

A5                        D5 G5 G#5 A5
  Sólo eso, sólo eso
A5                     C5              D5
  despierta en mí el viento que todo empuja
A5               C5 G5 G#5 A5
  sólo eso, sólo eso
A5                  C5        D5
  que más puedo esperar, sólo eso.

Final:

E|--------------------|
B|--------------7-----|
G|--------------7-----| X4 con Wha-Wha
D|-----9-7------7-----|
A|-7-9-----10-9-5---►-|
E|--------------------|

E|-----------------------------------------------|
B|-----------------------------------------------|
G|-------------------9--------------11-6---------|
D|--------11-9-------9-y-luego-hace-11-6-7----2--|
A|-►-9-11------12-11-7---------------9-4-7----2--|
E|---------------------------------------5----0--|
    |_________________|
     X4 con distorsión hasta el final

Los acordes del Riff estan ubicados para que sepan cual
es la sucesión pero ustedes pueden darle la prolongacion
que quieran.

Me pareció bueno enviar esta transcripción porque
tiene un par de cosas mas que las versiones anteriores.
Creo que esta bastante bien pero cualquier corrección o
sugerencia viene bien(oktubre_76@hotmail.com).
Aguante Lanús,la banda de Los Bafles y los que estuvieron
y siempre están... y por sobre todo
¡¡¡Aguante La Renga y el Rock and Roll!!!
Envía el tono de "El viento que todo empuja" a tu celular/móvil
Este fichero es trabajo propio de su transcriptor y representa su interpretación personal de la canción. El material contenido en esta página es
para exclusivo uso privado, por lo que se prohibe su reproducción o retransmisión, así como su uso para fines comerciales.
© LaCuerda.net · Aviso Legal · Privacidad