Tablatura para Bajo de la Renga: Balada Del Diablo Y La Muerte
Conexión · Inscripción
Letras y Acordes
Pantalla Completa
Imprimir
Versión Texto
Añadir Favorito
Otras Versiones

Mostrar Diagramas
Desfile Automático
Formato del Texto

la Renga
Balada Del Diablo Y La Muerte(BAJ)
calidad:
reng0065
AUTOR: Gustavo F. Nápoli
ALBUM: Insorportablemente Vivo
Enviado por nicolas, basado en enzo
INTRO

El bajo entra despues de dos compaces

G-----------------------------------------------
D--------4-5-5--7-5-4----------5-7-7-5-7-5------
A--7---7--------------7-5----7-------------7----
E-----------------------------------------------

G-----------------------------------------------
D--------4-5-5--7-5-4----------5-7-(DEJAR SONAR)
A--7---7--------------7-5----7------------------
E-----------------------------------------------

VERSO 1
G-----------------------------------------------
D--------4-5-5--7-5-4----------5-7-7-5-7-5------
A--7---7--------------7-5----7-------------7----  x7
E-----------------------------------------------

"que decia asi, ah ah aaaah"
G-----------------------------------------------
D-----------------------------------------------
A--2-2-2-2-2-2-2-2-2--2-2-2-2-2-2-2-2-2---------
E-----------------------------------------------

VERSO 2
G-----------------------------------------------
D-----------------------------------------------
A--------2-3-3--5-3-2----------3-5-5-3-5-3------  x3
E--5---5--------------5-3----5-------------5----


VERSO 3 (igual al 1)
G-----------------------------------------------
D--------4-5-5--7-5-4----------5-7-7-5-7-5------
A--7---7--------------7-5----7-------------7---- x3
E-----------------------------------------------

G-----------------------------------------------
D--------4-5-5--7-5-4----------5-7-(DEJAR SONAR)
A--7---7--------------7-5----7------------------
E-----------------------------------------------

SOLO
G-----------------------------------------------
D--------4-5-5--7-5-4----------5-7-7-5-7-5------
A--7---7--------------7-5----7-------------7----  x2
E-----------------------------------------------

G-----------------------------------------------
D--------4-5-5--7-5-4----------5-7-7---7-7------
A--7---7--------------7-5----7------------------  x2
E-----------------------------------------------

G-----------------------------------------------
D-----------------------------------------------
A-------------------------3-3-3-3-3-3-3-3-------
E--------5-5-5-5-5-5-5-5------------------------

G-----------------------------------------------
D-----------------------------------------------
A-------------------------5-5-5-5-5-5-5-5-------
E--------3-3-3-3-3-3-3-3------------------------

G-----------------------------------------------
D-----------------------------------------------
A-------------------------3-3-3-3-3-3-3-3-------
E--------5-5-5-5-5-5-5-5------------------------

G-----------------------------------------------
D-----------------------------------------------
A-------------------------5-5-5-5-5-5-5-5-------
E--------3-3-3-3-3-3-3-3-------------------5----

PRE-VERSO
G-----------------------------------------------
D--------4-5-5--7-5-4----------5-7-7-5-7-5------
A--7---7--------------7-5----7-------------7---- x2
E-----------------------------------------------

VERSO 4 (igual al 1 y 3)
G-----------------------------------------------
D--------4-5-5--7-5-4----------5-7-7-5-7-5------
A--7---7--------------7-5----7-------------7---- x7
E-----------------------------------------------

"me daba el propio ser humano uoh uoh uoh uoooohh"
G-----------------------------------------------
D-----------------------------------------------
A--2-2-2-2-2-2-2-2-2--2-2-2-2-2-2-2-2-2---------
E-----------------------------------------------

VERSO 5 (igual al verso 2)
G-----------------------------------------------
D-----------------------------------------------
A--------2-3-3--5-3-2----------3-5-5-3-5-3------  x3
E--5---5--------------5-3----5-------------5----

G-----------------------------------------------
D-----------------------------------------------
A--------2-3-3--5-3-2--------5------------------
E--5---5--------------5-3----------5------------

G----------------------------------------------- --
D-----------------------------------------------  |
A-------------------------3-3-3-3-3-3-3-3-------  |
E--------5-5-5-5-5-5-5-5------------------------  |
                                                  |  x3
G-----------------------------------------------  |
D-----------------------------------------------  |
A-------------------------5-5-5-5-5-5-5-5-------  |
E--------3-3-3-3-3-3-3-3------------------------ --

G-----------------------------------------------
D-----------------------------------------------
A-------------------------3-3-3-3-3-3-3-3-------
E--------5-5-5-5-5-5-5-5------------------------

G----------------------------------------------- -empieza a
D-----------------------------------------------  hacerse mas lento
A-------------------------5-5-5-5-5-5-5-5------- -dejar sonar
E--------3-3-3-3-3-3-3-3-------------------5----  la ultima nota


FIN

AGUANTE "7 PESOS LA PUA"
NICO
Envía el tono de "Balada Del Diablo Y La Muerte" a tu celular/móvil
Este fichero es trabajo propio de su transcriptor y representa su interpretación personal de la canción. El material contenido en esta página es
para exclusivo uso privado, por lo que se prohibe su reproducción o retransmisión, así como su uso para fines comerciales.
© LaCuerda.net · Aviso Legal · Privacidad