Tablatura para Guitarra de Reik: Ya me enteré
Conexión · Inscripción
Letras y Acordes
Pantalla Completa
Imprimir
Versión Texto
Añadir Favorito
Otras Versiones

Mostrar Diagramas
Desfile Automático
Manipular Acordes
Formato del Texto

Reik
Ya me enteré(TAB)
calidad:
reik0665
AUTOR: Reik  corregir
ALBUM: desconocido
Enviado por Migue
AFINACION STANDARD (sin capo)


INTRO:

      A     Bsus2     C#m          E     D/Fm        arreglo de piano
E  |--5-------7-------9------------0------2-----|-----------10--/--9---|
B  |------5-------5----------------0------3-----|----10----------------|
G  |----------------------9--------1------2-----|--11---11-------------|
D  |--4-------6-------7-------------------0-----|------------9--/--7---|
A  |--------------------------------------------|----------------------|
E  |--------------------------------------2-----|----------------------|

      A     Bsus2     C#m          E     D/Fm
E  |--5-------7-------9------------0------2--|
B  |------5-------5----------------0------3--|
G  |----------------------9--------1------2--|
D  |--4-------6-------7-------------------0--|
A  |-----------------------------------------|
E  |--------------------------------------2--|

VERSO

          Asus2
Ya me enteré
                 E                    F#m
Que hay alguien nuevo acariciando tu piel
         E                         A
Algún idiota al que quieres convencer
         E               D
Que tú y yo     Somos pasado.

            Asus2
Ya me enteré
             E                     F#m
Que soy el malo y todo el mundo te creé
         E                         A
Que estás mejor desde que ya no me ves
         E               D     (D C#m) como intervalo
Más feliz con otro al lado.

         Bm
A quién piensas que vas a engañar
        E
Sabes bien que eres mi otra mitad


ESTRIBILLO

  A                              F#m
Olvídate de ese perdedor Y repítele
                                   D
que yo soy mejor Que no le eres fiel
                         E
Con el corazón Que eres mía y sólo mía amor.

 A                             F#m
Despídete de ese perdedor Que imagina que ya no existo yo
         D                                   E
Deja claro que aunque intente no, no vas a querer.
        Bm                          E
La verdad es que me extrañas tanto lo sé... Ya me enteré eh eh eh mmmmm

      A     Bsus2       C#m        E        D/Fm
E  |--5-------7---------9----------0---------2------|
B  |------5--------5---------------0---------3------|
G  |-------------------------9-----1---------2------|
D  |--4-------6---------7--------------------0------|
A  |------------------------------------------------|
E  |-----------------------------------------0------|


(a partir de acá toda la progresión de acordes sube medio tono)

      Bb    Csus2         D            F         Eb
 E |--6-------8----------10------------1---------3--|
B  |------6--------6-------------------1---------4--|
G  |-------------------------10--------2---------3--|
D  |--4-------7-----------8-------------------------|
A  |------------------------------------------------|
E  |------------------------------------------------|



VERSO

    Bbsus2
Regresarás
           F                 Gm
Estoy seguro de que regresarás
          F                    Bsus2
Estás con él por pura comodidad
           F            Gm   Eb
Aburrida entre sus brazos...

             Cm
A quién piensas que vas a engañar
        F
Sabes bien que eres mi otra mitad


ESTRIBILLO

  Bb                            Gm
Olvídate de ese perdedor Y repítele
                                   Eb
que yo soy mejor Que no le eres fiel
                         F
Con el corazón Que eres mía y sólo mía amor.

   Bb                             Gm
Despídete de ese perdedor Que imagina que ya no existo yo
         Eb                                 F
Deja claro que aunque intente no, no vas a querer.

        Cm                   Gm       F
La verdad es que me extrañas tanto lo se...
                    Bbsus2   F  Gm
Ya me enteré ee ee ee e   emm
        Cm                   Gm        F
La verdad es que me extrañas tanto Lo sé...
          Bbsus2   F   Gm   Eb
Ya me enteré ee ee ee eee…

          Bbsus2    F     Eb
Ya me enteré uuuuhhh mmm



BUENAS!!! SAQUE ESTE LIIINDISIMO TEMA POR QUE VI QUE LAS OTRAS
TRANSCRIPCIONES ESTABAN ALGO INCOMPLETAS ASI QUE ESTA EN AFINACION
NORMAL PARA QUE SE PUEDA TOCAR SOBRE EL TEMA SIN NINGUN PROBLEMA,
LOS CAMBIOS DE ACORDES EN EL ESTRIBILLO SON LOS Q HAY QUE PRESTARLE
ATENCION A LA HORA DE CAMBIAR, ESCUCHEN BIEN EL TEMA
PARA APRENDER EL TEMPO!!! CUALQUIER DUDA O CONSULTA
 migspider007@hotmail.com o migue hidalgo en face!!!
Este fichero es trabajo propio de su transcriptor y representa su interpretación personal de la canción. El material contenido en esta página es
para exclusivo uso privado, por lo que se prohibe su reproducción o retransmisión, así como su uso para fines comerciales.
© LaCuerda.net · Aviso Legal · Privacidad