Tablatura para Guitarra de Reik: Ya me enteré
Conexión · Inscripción
Letras y Acordes
Pantalla Completa
Imprimir
Versión Texto
Añadir Favorito
Otras Versiones

Mostrar Diagramas
Desfile Automático
Manipular Acordes
Formato del Texto


Reik
Ya me enteré(TAB)
calidad:
reik0662
AUTOR: Reik  corregir
ALBUM: desconocido
Enviado por Erick
Stave 1:
E|--------------|-------------|-----------|
B|--------0-----|--2----------|-----------|
G|--2-----------|-------------|-----2-----|
D|-----2-----2--|-----2--2h4--|--4-----4--|
A|--------------|-------------|-----------|
E|--------------|-------------|-----------|

E|--------|--------------|--------0--2--|
B|--3--2--|--------0-----|--2-----------|
G|--------|--2-----------|--------------|
D|--------|-----2-----2--|-----2--------|
A|--------|--------------|--------------|
E|--------|--------------|--------------|

Stave 2:
E|--------------|--------------|-----------------------------|
B|--2--0--------|--------2--2--|--0--0--0--0--0--0-----3--2--|
G|--------2--2--|--2-----------|--------------------2--------|
D|--------------|--------------|-----------------------------|
A|--------------|--------------|-----------------------------|
E|--------------|--------------|-----------------------------|

E|--------------------------------------|
B|--2--2--2--0--0--0--0--0--0-----3--2--|
G|-----------------------------2--------|
D|--------------------------------------|
A|--------------------------------------|
E|--------------------------------------|


E|-----------|--------------|--------|
B|--0-----0--|--------------|--------|
G|-----2-----|--2--1-----2--|--------|
D|-----------|--------4-----|-----4--|
A|-----------|--------------|--------|
E|-----------|--------------|--------|

E|--------------|--------------|-----------------------------|
B|--2--0--------|--------2--2--|--0--0--0--0--0--0-----3--2--|
G|--------2--2--|--2-----------|--------------------2--------|
D|--------------|--------------|-----------------------------|
A|--------------|--------------|-----------------------------|
E|--------------|--------------|-----------------------------|

E|--------------------------------------|
B|--2--2--2--0--0--0--0--0--0-----3--2--|
G|-----------------------------2--------|
D|--------------------------------------|
A|--------------------------------------|
E|--------------------------------------|

Stave 3:
E|-----------|--------------|--------|
B|--0-----0--|--------------|--------|
G|-----2-----|--2--1-----2--|--------|
D|-----------|--------4-----|-----4--|
A|-----------|--------------|--------|
E|-----------|--------------|--------|
Stave 4:
E|--------|-----------------------|--------------|-----------------------|
B|--------|-----------------------|--------------|-----------------0--0--|
G|-----1--|--2--1--2--1--2--1--2--|-----------1--|--2--2--2--2--2--------|
D|--4-----|-----------------------|--------4-----|-----------------------|
A|--------|-----------------------|--------------|-----------------------|
E|--------|-----------------------|--------------|-----------------------|


CORO:
E|-----------------|-----------------|-----------------|-----------------|
B|-----3-----2--2--|--0-----3--2--2--|--0-----3--2--2--|--0-----3--2--2--|
G|--2--------------|-----2-----------|-----2-----------|-----2-----------|
D|-----------------|-----------------|-----------------|-----------------|
A|-----------------|-----------------|-----------------|-----------------|
E|-----------------|-----------------|-----------------|-----------------|

Stave 6:
E|--------0--------|--------0--------|-----------2--0--0--|
B|--0--------3--3--|--2--0-----3--3--|-----2--0-----------|
G|-----2-----------|-----------------|--------------------|
D|-----------------|-----------------|--------------------|
A|-----------------|-----------------|--------------------|
E|-----------------|-----------------|--------------------|

E|--------2--0--0--2-----
B|--3--2--------------3--
G|-----------------------
D|-----------------------
A|-----------------------
E|-----------------------

Stave 7:
E|-----------------|-----------------|-----------------|-----------------|
B|-----------2--2--|--0-----3--2--2--|--0-----3--2--2--|--0-----3--2--2--|
G|-----------------|-----2-----------|-----2-----------|-----2-----------|
D|-----------------|-----------------|-----------------|-----------------|
A|-----------------|-----------------|-----------------|-----------------|
E|-----------------|-----------------|-----------------|-----------------|

Stave 8:
E|--------0--------|--------0--------|-----------2--0--0--|
B|--0--------3--3--|--2--0-----3--3--|-----2--0-----------|
G|-----2-----------|-----------------|--------------------|
D|-----------------|-----------------|--------------------|
A|-----------------|-----------------|--------------------|
E|-----------------|-----------------|--------------------|

Stave 9:
E|--------|-----------|--------------------0--|-----------------|
B|--2--0--|-----0--2--|--3--2--3--2--3--2-----|--2--0-----0--0--|
G|--------|-----------|-----------------------|--------2--------|
D|--------|-----------|-----------------------|-----------------|
A|--------|-----------|-----------------------|-----------------|
E|--------|-----------|-----------------------|-----------------|

E|--------------|--------
B|-----0--2--0--|--------
G|--2-----------|-----2--
D|--------------|--------
A|--------------|--------
E|--------------|--------

todos los creditos para el amigo de Requintos Tab
saludos desde Peru
cualquier consulta escribirme a otinianoerick@gmail.com
VIDEO TUTORIAL: https://www.youtube.com/watch?v=Dz1f9XsZoC4
Este fichero es trabajo propio de su transcriptor y representa su interpretación personal de la canción. El material contenido en esta página es
para exclusivo uso privado, por lo que se prohibe su reproducción o retransmisión, así como su uso para fines comerciales.

© LaCuerda.net · Aviso Legal · Privacidad